Song name
# A B C D E F G H I J K L M N O P Q R S T U V W X Y Z

Him - Wicked Game tab

-------------------------------------------------------------------------------
			     wicked game - HIM
-------------------------------------------------------------------------------
Tabbed by:jayjay_HIM
Email:jayjay_gibsonsg@hotmil.com

Tuning: standard

the intro to this song is also used for the chorus. it is a pretty simple song to play 
hope you all enjoy so please message me as this is my first tab thanks jayjay_HIM

e|---2-----0-----0----0-----0---0-----------------------|
B|-----3-----3----------2-----2-0-----------------------|
G|-4-----4-----4----2-----2-----1-1~1h2-3-2-3-----------| repeat till verse
D|------------------------------2-----------------------|
A|------------------------------2-----------------------|
E|------------------------------------------------------|
verse:
e|------------------------------------------------------|
B|------------------------------------------------------|
G|---------------------1xxx1-2p11xxx1-------------------|
D|-5xxxxxxxx-3xxxxxxxx-2xxx2-2-22xxx2--repeat 4 times---|
A|-5xxxxxxxx-3xxxxxxxx-2xxx2-2-22xxx2-------------------|
E|-7xxxxxxxx-5xxxxxxxx----------------------------------|
now go to intro for the chorus
then back to the verse and chorus again and then its the solo

e|-----------------------------------------------------|
B|-0-5^7-5-5h6p5-3-2-0---------------------------------|
G|---------------------1-1h2-2h3-2h3---repeat x2-------|
D|-----------------------------------------------------|
A|-----------------------------------------------------|
E|-----------------------------------------------------|

e|---2-----0-----0----0-----0---0------------------------|
B|-----3-----3----------2-----2-0------------------------|
G|-4-----4-----4----2-----2-----1-1~1h2-3-2-3--repeat----| x2
D|------------------------------2------------------------|
A|------------------------------2------------------------|
E|-------------------------------------------------------|

then its back to the verse and then do the chorus 1 more time and thats it
hope it helps please leave comments.


| /  slide up
| \  slide down
| h  hammer-on
| p  pull-off
| ~  vibrato
| ^  bend up
| x  Mute note
Tap to rate this tab
 
# A B C D E F G H I J K L M N O P Q R S T U V W X Y Z