Song name
# A B C D E F G H I J K L M N O P Q R S T U V W X Y Z

Him - Scared To Death tab

-------------------------------------------------------------------------------
			    Scared To Death - HIM
-------------------------------------------------------------------------------
Tabbed by: Kyle Quinell [KQRulz3000]
Email: k.quinell@hotmail.co.uk

Tuning: Standard [EADGBE]

I decided to tab this song so I can play it for my girlfriend for valentines.
First proper tab by ear. Wasn't too hard but I still dont think it's 100%.
Email me with any possible corrections.
Kyle

Intro
e|--------------------------------------------------------------------------|
B|-----------------------------------------------------------5--------------|
G|--------------------------------------------------------------------------|
D|-7-7-7-7-7-7-7-7-9-9-9-9-9-9-9-9-9-9-9-9-9-9-9-9--/4-7-6-7---7-6-7--------|
A|-7-7-7-7-7-7-7-7-7-7-7-7-7-7-7-7-9-9-9-9-9-9-9-9--------------------------|
E|-5-5-5-5-5-5-5-5-7-7-7-7-7-7-7-7-7-7-7-7-7-7-7-7--------------------------|

e|--------------------------------------------------------------------------|
B|--------------------------------------------------------------------------|
G|--------------------------------------------------------------------------|
D|-7-7-7-7-7-7-7-7-7-9-9-9-9-9-9-9-9-7--------------------------------------|
A|-7-7-7-7-7-7-7-7-7-7-7-7-7-7-7-7-7-5--------------------------------------|
E|-5-5-5-5-5-5-5-5-5-7-7-7-7-7-7-7-7-5--------------------------------------|

Verse, Note: These are just the chords, play as you like
e|--2----------0----------0----------0----------2----------0----------0-----|
B|--2----------3----------2----------0----------2----------3----------2-----|
G|--2----------2----------2----------1----------2----------2----------2-----|
D|--4----------0----------2----------2----------4----------0----------2-----|
A|--4----------0----------0----------2----------4----------0----------0-----|
E|--2--------------------------------0----------2---------------------------|

Prechorus
e|-----------------------------------------------|
B|-----------------------------------------------|
G|-------------------------------------2-----2---|
D|-9---7---7---9-9-9-9-9-9-9-9-9-----4-----2-----|
A|-7---5---5---7-7-7-7-7-7-7-7-7---5-----4-----2-|
E|-7---5---5---7-7-7-7-7-7-7-7-7-----------------|

Chorus
e|--------------------------------------------------------------------------|
B|----------------------------------------------------------5---------------|
G|--------------------------------------------------------------------------|
D|-7-7-7-7-7-7-7-7-2-2-2-2-2-2-2-2-9-9-9-9-9-9-9-9-/4-7-6-7---7-6-7---------|
A|-7-7-7-7-7-7-7-7-2-2-2-2-2-2-2-2-9-9-9-9-9-9-9-9--------------------------|
E|-5-5-5-5-5-5-5-5-0-0-0-0-0-0-0-0-7-7-7-7-7-7-7-7--------------------------|

e|--------------------------------------------------------------------------|
B|------------------------------------------17----------17----------17------|
G|------------------------------------14-16-------14-16-------14-16---------|
D|-7-7-7-7-7-7-7-7-9-9-9-9-9-9-9-9-14----------14----------14---------------|
A|-7-7-7-7-7-7-7-7-7-7-7-7-7-7-7-7------------------------------------------|
E|-5-5-5-5-5-5-5-5-7-7-7-7-7-7-7-7------------------------------------------|

e|--------------------------------------------------------------------------|
B|----------17----------17----------17----------17----------17--------------|
G|----14-16-------14-16-------14-16-------14-16-------14-16-----------------|
D|-14----------14----------14----------14----------14-----------------------|
A|--------------------------------------------------------------------------|
E|--------------------------------------------------------------------------|

e|--------------------------------------------------------------------------|
B|--------------------------------------------------------------------------|
G|--------------------------------------------------------------------------|
D|-9-9-9-9-9-9-9-9-7--------------------------------------------------------|
A|-9-9-9-9-9-9-9-9-5--------------------------------------------------------|
E|-7-7-7-7-7-7-7-7-5--------------------------------------------------------|

Verse 2
e|--2----------0----------0----------0----------2----------0----------0-----|
B|--2----------3----------2----------0----------2----------3----------2-----|
G|--2----------2----------2----------1----------2----------2----------2-----|
D|--4----------0----------2----------2----------4----------0----------2-----|
A|--4----------0----------0----------2----------4----------0----------0-----|
E|--2--------------------------------0----------2---------------------------|

Prechorus 2
e|-----------------------------------------------|
B|-----------------------------------------------|
G|-------------------------------------2-----2---|
D|-9---7---7---9-9-9-9-9-9-9-9-9-----4-----2-----|
A|-7---5---5---7-7-7-7-7-7-7-7-7---5-----4-----2-|
E|-7---5---5---7-7-7-7-7-7-7-7-7-----------------|

Chorus 2
e|--------------------------------------------------------------------------|
B|----------------------------------------------------------5---------------|
G|--------------------------------------------------------------------------|
D|-7-7-7-7-7-7-7-7-2-2-2-2-2-2-2-2-9-9-9-9-9-9-9-9-/4-7-6-7---7-6-7---------|
A|-7-7-7-7-7-7-7-7-2-2-2-2-2-2-2-2-9-9-9-9-9-9-9-9--------------------------|
E|-5-5-5-5-5-5-5-5-0-0-0-0-0-0-0-0-7-7-7-7-7-7-7-7--------------------------|

e|--------------------------------------------------------------------------|
B|------------------------------------------17----------17----------17------|
G|------------------------------------14-16-------14-16-------14-16---------|
D|-7-7-7-7-7-7-7-7-9-9-9-9-9-9-9-9-14----------14----------14---------------|
A|-7-7-7-7-7-7-7-7-7-7-7-7-7-7-7-7------------------------------------------|
E|-5-5-5-5-5-5-5-5-7-7-7-7-7-7-7-7------------------------------------------|

e|--------------------------------------------------------------------------|
B|----------17----------17----------17----------17----------17--------------|
G|----14-16-------14-16-------14-16-------14-16-------14-16-----------------|
D|-14----------14----------14----------14----------14-----------------------|
A|--------------------------------------------------------------------------|
E|--------------------------------------------------------------------------|

e|--------------------------------------------------------------------------|
B|--------------------------------------------------------------------------|
G|--------------------------------------------------------------------------|
D|-9-9-9-9-9-9-9-9----------------------------------------------------------|
A|-9-9-9-9-9-9-9-9----------------------------------------------------------|
E|-7-7-7-7-7-7-7-7----------------------------------------------------------|

Bridge
e|--------------------------------------------------------------------------|
B|--------------------------------------------------------------------------|
G|--------------------------------------------------------------------------|
D|-7-7-7-7-7-7-7-7-9-9-9-9-9-9-9-9-9-9-9-9-9-9-9-9-7-7-7-7-7-7-7-7----------|
A|-7-7-7-7-7-7-7-7-7-7-7-7-7-7-7-7-9-9-9-9-9-9-9-9-5-5-5-5-5-5-5-5----------|
E|-5-5-5-5-5-5-5-5-7-7-7-7-7-7-7-7-7-7-7-7-7-7-7-7-5-5-5-5-5-5-5-5----------|

                                                  
e|--------------------------------------------------------------------------|
B|--------------------------------------------------------------------------|
G|--------------------------------------------------------------------------|
D|-7-7-7-7-7-7-7-7-9-9-9-9-9-9-9-9-9-9-9-9-9-9-9-9-7-7-7-7-7-7-7-7----------|
A|-7-7-7-7-7-7-7-7-7-7-7-7-7-7-7-7-9-9-9-9-9-9-9-9-5-5-5-5-5-5-5-5----------|
E|-5-5-5-5-5-5-5-5-7-7-7-7-7-7-7-7-7-7-7-7-7-7-7-7-5-5-5-5-5-5-5-5----------|

Solo
e|---------------------------------------------------------------------|
B|------------------------------------------------------------------17-|
G|-------13b----------------13-14-16b-14-18-14----14----16----14-------|
D|-14h16-----14-------14-16--------------------14----14----14----14----|
A|--------------16-----------------------------------------------------|
E|---------------------------------------------------------------------|

e|---------------------------------------------------------------------|
B|------------------------17-15-14-14h15p14p12--19-17-17h19p17p15-21b--|
G|------14----16----14-------------------------------------------------|
D|---14----14----14----14----------------------------------------------|
A|---------------------------------------------------------------------|
E|---------------------------------------------------------------------|

Chorus 3
e|--------------------------------------------------------------------------|
B|----------------------------------------------------------5---------------|
G|--------------------------------------------------------------------------|
D|-7-7-7-7-7-7-7-7-2-2-2-2-2-2-2-2-9-9-9-9-9-9-9-9-/4-7-6-7---7-6-7---------|
A|-7-7-7-7-7-7-7-7-2-2-2-2-2-2-2-2-9-9-9-9-9-9-9-9--------------------------|
E|-5-5-5-5-5-5-5-5-0-0-0-0-0-0-0-0-7-7-7-7-7-7-7-7--------------------------|

e|--------------------------------------------------------------------------|
B|------------------------------------------17----------17----------17------|
G|------------------------------------14-16-------14-16-------14-16---------|
D|-7-7-7-7-7-7-7-7-9-9-9-9-9-9-9-9-14----------14----------14---------------|
A|-7-7-7-7-7-7-7-7-7-7-7-7-7-7-7-7------------------------------------------|
E|-5-5-5-5-5-5-5-5-7-7-7-7-7-7-7-7------------------------------------------|

e|--------------------------------------------------------------------------|
B|----------17----------17----------17----------17----------17--------------|
G|----14-16-------14-16-------14-16-------14-16-------14-16-----------------|
D|-14----------14----------14----------14----------14-----------------------|
A|--------------------------------------------------------------------------|
E|--------------------------------------------------------------------------|

e|--------------------------------------------------------------------------|
B|--------------------------------------------------------------------------|
G|--------------------------------------------------------------------------|
D|-9-9-9-9-9-9-9-9----------------------------------------------------------|
A|-9-9-9-9-9-9-9-9----------------------------------------------------------|
E|-7-7-7-7-7-7-7-7----------------------------------------------------------|

e|--------------------------------------------------------------------------|
B|----------------------------------------------------------5---------------|
G|--------------------------------------------------------------------------|
D|-7-7-7-7-7-7-7-7-2-2-2-2-2-2-2-2-9-9-9-9-9-9-9-9-/4-7-6-7---7-6-7---------|
A|-7-7-7-7-7-7-7-7-2-2-2-2-2-2-2-2-9-9-9-9-9-9-9-9--------------------------|
E|-5-5-5-5-5-5-5-5-0-0-0-0-0-0-0-0-7-7-7-7-7-7-7-7--------------------------|

e|--------------------------------------------------------------------------|
B|------------------------------------------17----------17----------17------|
G|------------------------------------14-16-------14-16-------14-16---------|
D|-7-7-7-7-7-7-7-7-9-9-9-9-9-9-9-9-14----------14----------14---------------|
A|-7-7-7-7-7-7-7-7-7-7-7-7-7-7-7-7------------------------------------------|
E|-5-5-5-5-5-5-5-5-7-7-7-7-7-7-7-7------------------------------------------|

e|--------------------------------------------------------------------------|
B|----------17----------17----------17----------17----------17--------------|
G|----14-16-------14-16-------14-16-------14-16-------14-16-----------------|
D|-14----------14----------14----------14----------14-----------------------|
A|--------------------------------------------------------------------------|
E|--------------------------------------------------------------------------|

e|--------------------------------------------------------------------------|
B|--------------------------------------------------------------------------|
G|--------------------------------------------------------------------------|
D|-9-9-9-9-9-9-9-9----------------------------------------------------------|
A|-9-9-9-9-9-9-9-9----------------------------------------------------------|
E|-7-7-7-7-7-7-7-7----------------------------------------------------------|

Bridge2
e|--------------------------------------------------------------------------|
B|--------------------------------------------------------------------------|
G|--------------------------------------------------------------------------|
D|-7-7-7-7-7-7-7-7-9-9-9-9-9-9-9-9-9-9-9-9-9-9-9-9-7-7-7-7-7-7-7-7----------|
A|-7-7-7-7-7-7-7-7-7-7-7-7-7-7-7-7-9-9-9-9-9-9-9-9-5-5-5-5-5-5-5-5----------|
E|-5-5-5-5-5-5-5-5-7-7-7-7-7-7-7-7-7-7-7-7-7-7-7-7-5-5-5-5-5-5-5-5----------|

                                                  
e|--------------------------------------------------------------------------|
B|--------------------------------------------------------------------------|
G|--------------------------------------------------------------------------|
D|-7-7-7-7-7-7-7-7-9-9-9-9-9-9-9-9-9-9-9-9-9-9-9-9-7-7-7-7-7-7-7-7----------|
A|-7-7-7-7-7-7-7-7-7-7-7-7-7-7-7-7-9-9-9-9-9-9-9-9-5-5-5-5-5-5-5-5----------|
E|-5-5-5-5-5-5-5-5-7-7-7-7-7-7-7-7-7-7-7-7-7-7-7-7-5-5-5-5-5-5-5-5----------|

Outro
e|--------------------------------------------------------------------------|
B|--------------------------------------------------------------------------|
G|--------------------------------------------------------------------------|
D|-4-4-4-4-4-4-----2-2-2-2-2-2-----7-7-7-7-7-7-7-7-7-7-7-7-7-7-7------------|
A|-4-4-4-4-4-4-----2-2-2-2-2-2-----5-5-5-5-5-5-5-5-7-7-7-7-7-7-7------------|
E|-2-2-2-2-2-2-----0-0-0-0-0-0-----5-5-5-5-5-5-5-5-5-5-5-5-4-4-4------------|

e|--------------------------------------------------------------------------|
B|--------------------------------------------------------------------------|
G|--------------------------------------------------------------------------|
D|-7-7-7-7-7-7-7-7-9-9-9-9-9-9-9-9-9-9-9-9-9-9-9-9-7------------------------|
A|-7-7-7-7-7-7-7-7-7-7-7-7-7-7-7-7-9-9-9-9-9-9-9-9-5------------------------|
E|-5-5-5-5-5-5-5-5-7-7-7-7-7-7-7-7-7-7-7-7-7-7-7-7-5------------------------|

************************************

| /   slide up
| \   slide down
| h   hammer-on
| p   pull-off
| ~   vibrato
| +   harmonic
| x   Mute note
| b   Bend
| pb  Pre-bend
| br  Bend release
| pbr Pre-bend release
| brb Bend release bend

************************************
Tap to rate this tab
# A B C D E F G H I J K L M N O P Q R S T U V W X Y Z