Song name
# A B C D E F G H I J K L M N O P Q R S T U V W X Y Z

Him - Ode To Solitude tab

-------------------------------------------------------------------------------
                              Him - Ode to solitude
-------------------------------------------------------------------------------

Tuning: DADGBE (drop D)
Tabbed by Daniel romero

intro
e|--------------------------------------------------------------------|
B|--------------------------------------------------------------------|
G|--------------------------------------------------------------------|
D|--0-1-3-1-0-3~~~~~~~-----0-3-1-0-1---0-1-3-1-0----------------------|
A|--0-1-3-1-0-3~~~~~~~-----0-3-1-0-1---0-1-3-1-0----------------------|
D|--0-1-3-1-0-3~~~~~~~-----0-3-1-0-1---0-1-3-1-0----------------------|
   P.M.......              P.M..................


e|--------------------------------------------------------------------|
B|--------------------------------------------------------------------|
G|--------3-------5--3h5--*3------------3---------5-------------------|
D|---------------------------------------------------0-1-3-1-0-3------|
A|---------------------------------------------------0-1-3-1-0-3------|
D|--3-3-3-----3-3-----------------3-3-3-------3-3----0-1-3-1-0-3------|
    P.M..     ...                 .....       ...    ...........

e|--------------------------------------------------------------------|
B|--------------------------------------------------------------------|
G|--------3-------5--3h5--*3------------3---------5-------------------|
D|---------------------------------------------------0-1-3-1-0-3~~~~--|
A|---------------------------------------------------0-1-3-1-0-3~~~~--|
D|--3-3-3-----3-3-----------------3-3-3-------3-3----0-1-3-1-0-3~~~~--|
    P.M..     ...                 .....       ...    ..........

Verse  
e|--------------------------------------------------------------------|
B|--------------------------------------------------------------------|
G|-----------------------88888888-------------------------------------|
D|---33333333--66666666--xxxxxxxx-------------------------------------|
A|---33333333--66666666--66666666-------------------------------------|
D|---33333333--66666666-----------------------------------------------|

e|--------------------------------------------------------------------|
B|--------------------------------------------------------------------|
G|--------3-------5--3h5--*3------------3---------5-------------------|
D|---------------------------------------------------0-1-3-1-0-3-3~~~-|
A|---------------------------------------------------0-1-3-1-0-3-3~~~-|
D|--3-3-3-----3-3-----------------3-3-3-------3-3----0-1-3-1-0-3-3~~~-|
    P.M..     ...                 .....       ...    ...........

e|-----------------------------------------------------------------|
B|-----------------------------------------------------------------|
G|-----------------------------------------------------------------|
D|----3--1~-----#1212121212121212----------------------------------|
A|----3--1~----------------------#1212121212121212-----------------|
D|----3--1~--------------------------------------------------------|


chorus                        (hearse to the pain)
e|-------------------------|----------------------------|--------------|
B|-------------------------|----------------------------|--------------|
G|-------------------------|----------------------------|--------------|
D|--1-1-1--1--33-------33--|--33--6----11--1\3----11--3-|--0-1-3-1-0-3-|
A|--1-1-1--1--33-------33--|--33--6----11--1\3----11--3-|--0-1-3-1-0-3-|
D|--1-1-1--1--33-------33--|--33--6----11--1\3----11--3-|--0-1-3-1-0-3-|
    P.M.....                           ..                  ...........


e|----------------------------------------------------|
B|----------------------------------------------------|
G|-----------------88888888--13131313--1212-----------|
D|--11--33--3\1----xxxxxxxx--xxxxxxxx--xxxx-----------|
A|--11--33--3\1----66666666--11111111--1010-----------|
D|--11--33--3\1---------------------------------------|


      (hearse to the pain)
e|-------------------------------------------------------------------|
B|-------------------------------------------------------------------|
G|-------------------------------------------------------------------|
D|--33333333--66666666--11111111--33333333---11--33--3p1--1~~---1\3--|
A|--33333333--66666666--11111111--33333333---11--33--3p1--1~~---1\3--|
D|--33333333--66666666--11111111--33333333---11--33--3p1--1~~---1\3--|


Verse 2
e|---------------------------------------------------------------------|
B|---------------------------------------------------------------------|
G|--------3-------5--3h5--*3------------3---------5--------------------|
D|---------------------------------------------------0-1-3-1-0-1-3~~~~-|
A|---------------------------------------------------0-1-3-1-0-1-3~~~~-|
D|--3-3-3-----3-3-----------------3-3-3-------3-3----0-1-3-1-0-1-3~~~~-|
    P.M..     ...                 .....       ...    ...........


e|----------------------------------------------|
B|----------------------------------------------|
G|--------0----------0----------0---------------|
D|---55-5-------77-7-------99-9-----------------|
A|--3--3-3-3---5--5-5-5---7--7-7-7--------------|
D|----------------------------------------------|
    
e|-----------------------------------------------------------------|
B|-----------------------------------------------------------------|
G|-----------------------------------------------------------------|
D|----3--1~-----#1212121212121212----------------------------------|
A|----3--1~----------------------#1212121212121212-----------------|
D|----3--1~--------------------------------------------------------|


chorus 2                (hearse to the pain)
e|-------------------|----------------------------|--------------|
B|-------------------|----------------------------|--------------|
G|-------------------|----------------------------|--------------|
D|--1-1-1--1--33-----|--33--6----11--1\3----11--3-|--0-1-3-1-0-3-|
A|--1-1-1--1--33-----|--33--6----11--1\3----11--3-|--0-1-3-1-0-3-|
D|--1-1-1--1--33-----|--33--6----11--1\3----11--3-|--0-1-3-1-0-3-|
    P.M.....                     ..                  ...........


e|----------------------------------------------------|
B|----------------------------------------------------|
G|-----------------88888888--13131313--1212-----------|
D|--11--33--3\1----xxxxxxxx--xxxxxxxx--xxxx-----------|
A|--11--33--3\1----66666666--11111111--1010-----------|
D|--11--33--3\1---------------------------------------|


      (hearse to the pain)
e|-------------------------------------------------------------------|
B|-------------------------------------------------------------------|
G|-------------------------------------------------------------------|
D|--33333333--66666666--11111111--33333333---11--33--3P1--3--66--1~~-|
A|--33333333--66666666--11111111--33333333---11--33--3P1--3--66--1~~-|
D|--33333333--66666666--11111111--33333333---11--33--3P1--3--66--1~~-|

(acoustic part)
e|------------------------------------------------|
B|------------------------------------------------|
G|----0---0-----0---0-----0---0-----0---0---------|
D|----5---------5---------5---------5-------------|
A|--3---3-----3---3-----3---3-----3---3-----------|
D|------------------------------------------------|


bridge
e|-------------------------------------------------|
B|-------------------------------------------------|
G|-------------------------------------------------|
D|--333333333333-3-6---111111111111--1-3-----------|
A|--333333333333-3-6---111111111111--1-3-----------|
D|--333333333333-3-6---111111111111--1-3-----------|


e|---------------------------------------------------------------------|
B|---------------------------------------------------------------------|
G|--------3-------5--3h5--*3------------3---------5--------------------|
D|---------------------------------------------------0-1-3-1-0-3~~~~---|
A|---------------------------------------------------0-1-3-1-0-3~~~~---|
D|--3-3-3-----3-3-----------------3-3-3-------3-3----0-1-3-1-0-3~~~~---|
    P.M..     ...                 .....       ...    ...........


e|-------------------------------------------------|
B|-------------------------------------------------|
G|-------------------------------------------------|
D|--333333333333-3-6---111111111111--1-3-----------|
A|--333333333333-3-6---111111111111--1-3-----------|
D|--333333333333-3-6---111111111111--1-3-----------|


e|-------------------------------------------------------------------|
B|-------------------------------------------------------------------|
G|--------3-------5--3h5--*3------------3---------5------------------|
D|---------------------------------------------------0-1-3-1-0-3-----|
A|---------------------------------------------------0-1-3-1-0-3-----|
D|--3-3-3-----3-3-----------------3-3-3-------3-3----0-1-3-1-0-3-----|
    P.M..     ...                 .....       ...    ...........


e|-----------------------------------------|
B|-----------------------------------------|
G|----------------*5-*5--------------------|
D|-1-1-1--1--33----------------------------|
A|-1-1-1--1--33----------------------------|
D|-1-1-1--1--33----------------------------|
   P.M.....

then repeat other part 

Ending
e|---------------------------------------------|
B|---------------------------------------------|
G|---------------------------------------------| X2
D|--33--33----33--33---0-1-3-1-0-3-------------|
A|--33--33----33--33---0-1-3-1-0-3-------------|
D|--33--33----33--33---0-1-3-1-0-3-------------|
                       P.M........

e|---------------------------------------------------|
B|---------------------------------------------------|
G|---------------------------------------------------|
D|--33--33----33--33---0-1-3-1-0-3---0-3-1-0-1-3-----|
A|--33--33----33--33---0-1-3-1-0-3---0-3-1-0-1-3-----|
D|--33--33----33--33---0-1-3-1-0-3---0-3-1-0-1-3-----|
                       P.M....................
Tap to rate this tab
# A B C D E F G H I J K L M N O P Q R S T U V W X Y Z