Song name
# A B C D E F G H I J K L M N O P Q R S T U V W X Y Z

Him - Your Sweet 666 tab

Song: Your Sweet 666
Band: H.I.M.
Tabbed by: unspeakable.elvis@gmail.com

Tuning: B standard (low to high: B E A D F# b)

Legend:

.       palm mute
h       hammer on
p       pull off
/       slide up to note
\       slide down from note
7b9     bend 7th fret major second up
9r7     release previous bend
x       dead note
(n)     ghost note
~       vibrato
*     artificial (pinch) harmonic



|-------------------------|
|-------------------------|
|----------------------4--|
|-------------5--4--0--2--|
|----------------------2--|
|----------------------0--|
                       ^ First chord on the offbeat


Intro
~~~~~

|-------------------------------------------------|       \
|-------------------------------------------------|        |
|-------4-----5-----4-----------4-----5--5--4-----| Lead   |
|(2)-2-----2-----2-----------2-----2-----------2--| Guitar |
|-------------------------------------------------| (+FX)  |
|-------------------------------------------------|        |
|				                  |         > Play x3
|                                                 |        |
|-------------------------------------------------|        |
|-------------------------------------------------|        |
|(4)-------------------5-----------4-----------4--| Rhythm |
|(2)-------------------5-----------4-----------2--| Guitar |
|(2)-------------------3-----------2-----------2--|        |
|(0)-------------------------------------------0--|       /
  ^Don't play this. Brackets mean you're holding 
   the chord from the previous measure.



|-------------------------------------------------|
|-------------------------------------------------|
|(4)---------pick scrape------------------2-------| Rhythm + Lead
|(2)----------\\\\\--------2--2--2--2--2--0-------| Guitar
|(2)----------\\\\\-------------------------------|
|(0)----------------------------------------------|
|                             .  .  .  .          |
|                                                 |
|-------------------------------------------------|
|-------------------------------------------------| Bass
|--------------------------7--7--7--7--7--5----3--| Guitar
|-0-----------------------------------------------|



Verse
~~~~~
          "there are things you should know..."
|-------------------------------------------------|
|-------------------2/-5--5--5--5--5--5--5--5-----| Bass
|(3)-3--3--3--3--3-----------------------------2--| Guitar
|-------------------------------------------------| (w/ distortion)



|-------------------------------------------------|
|-------------------------------------------------|
|(2)-2--2--2--2--2--2--2--2--2--2--2--2--2--2--3--|
|-------------------------------------------------|


     "and the distance between us seems to..."
|-------------------------------------------------|
|----------------------2--2--2--2--2--2--2--2-----|
|(3)-3--3--3--3--3--3--------------------------2--|
|-------------------------------------------------|



|--------------------------------------------------|
|--------------------------------------------------|
|--------------------------------------------------| Rhythm
|-------------------------------------5-4h5p4------| (Clean)
|---------------------------------------------5-3--|
|--------------------------------------------------|
|                                                  |
|   "grow..."                                      |
|--------------------------------------------------|
|-------------------------------------5-4h5p4-0----| Bass
|(2)-2--2--2--2--2--2--2--2--2--2--2------------3--| Guitar
|--------------------------------------------------|



|-------------------------------------------------|
|-------------------------------------------------|
|-------------------------------------------------|
|-------------------------------------------------|
|(3)~~~-------------------------------------------|
|-------------------------------------------------|
|                                                 |
|       "but you're holding on..."                |
|-------------------------------------------------|
|-------------------2/-5--5--5--5--5--5--5--5-----| Bass
|(3)-3--3--3--3--3-----------------------------2--| Guitar
|-------------------------------------------------|


    "strong..."
|-------------------------------------------------|
|-------------------------------------------------| Bass
|(2)-2--2--2--2--2--2--2--2--2--2--2--2--2--2--3--| Guitar
|-------------------------------------------------|



|-------------------------------------------------|
|-------------------------------------------------|
|----------------------------------------------4--| Rhythm
|----------------------------------------------4--| Guitar
|----------------------------------------------2--|
|-------------------------------------------------|
|                                                 |
|       "and oh how hard      it is     to let go..."
|-------------------------------------------------|
|----------------------2--2--2--2--2--2--2--2-----| Bass
|(3)-3--3--3--3--3--3--------------------------2--| Guitar
|-------------------------------------------------|


                "oh so hard to let go..."
|-------------------------------------------------|
|-------------------------------------------------|
|(4)-------------------4-----------4-----------4--| Rhythm
|(4)-------------------4-----------4-----------2--| Guitar
|(2)-------------------2-----------2-----------2--|
|----------------------------------------------0--|



Chorus (Play x2)
~~~~~~

|-------------------------------------------------|
|-------------------------------------*-----------|
|-------4-----5-----4-----------4-----5-----4--0--| Lead
|----2-----2-----------2-----2-----2--------------| Guitar
|-------------------------------------------------|
|-------------------------------------------------|
|                                                 |
|       "i'm waiting for your call,  and i'm..."  |
|-------------------------------------------------|
|-------------------------------------------------|
|(4)----------------------------------------------| Rhythm
|(2)-------------------------------------------5--| Guitar
|(2)-------------------------------------------5--|
|(0)-------------------------------------------3--|



|-------------------------------------------------|
|-------------*-----------------------*-----------|
|(0)-0--4--0--5-----4-----------4-----5-----4-----| Lead
|----------------------0-----0-----0--------------|
|----------------------------------------------3--|
|-------------------------------------------------|
|                                                 |
|"ready to take your   six six six in     my heart..."
|-------------------------------------------------|
|-------------------------------------------------|
|----------------------7-----------------------5--| Rhythm
|(5)-------------------7-----------------------5--|
|(5)-------------------5-----------------------3--|
|(3)----------------------------------------------|



|-------------------------------------------------|
|-------------------------------------------------|
|-------4----/5--5--4-----------4----/5--5--4-----| Lead
|-------------------------------------------------|
|(3)-3-----3-----------3-----3-----3-----------3--|
|-------------------------------------------------|
|                                                 |
|                                                 |
|-------------------------------------------------|
|-------------------------------------------------|
|(5)----5--5-----5-----5--------5--5-----5-----5--| Rhythm
|(5)----5--5-----5-----5--------5--5-----5-----5--|
|(3)----3--3-----3-----3--------3--3-----3-----3--|
|-------------------------------------------------|



|-------------------------------------------------|
|-------------*-----------------------------------|
|-------4----/5-----4-----------4-----------------| Lead
|----------------------0-----0-----0--5--4--0--2--|
|(3)-3-----3--------------------------------------|
|-------------------------------------------------|
|                                                 |
|                                                 |
|-------------------------------------------------|
|-------------------------------------------------|
|(5)----5--5-----5-----7--------7--------------4--| Rhythm
|(5)----5--5-----5-----7--------7-----5--4--0--2--|
|(3)----3--3-----3-----5--------5--------------2--|
|----------------------------------------------0--|



Back to Intro, Verse, then Chorus, after which:

Middle bit
~~~~~~~~~~

|-------------------------------------------------|       \
|-------------------------------------------------|        |
|-------4-----5-----4-----------4-----5-----4-----| Lead   |
|(2)-2-----2-----2-----------2-----2-----2-----2--|        |
|-------------------------------------------------|        |
|-------------------------------------------------|        |
|                                                 |         > Play x3
|                                                 |        |
|-------------------------------------------------|        |
|-------------------------------------------------|        |
|(4)-------------------5-----------4-----------4--| Rhythm |
|(2)-------------------5-----------4-----------2--|        |
|(2)-------------------3-----------2-----------2--|        |
|(0)-------------------------------------------0--|       /



|-------------------------------------------------|
|----------------------------------------------r--|
|-------4-----5-----4-----------4-----5-----4--e--| Lead
|(2)-2-----2-----2-----------2-----2-----2-----s--|
|----------------------------------------------t--|
|-------------------------------------------------|
|                                                 |
|                                                 |
|-------------------------------------------------|
|----------------------------------------------r--|
|(4)-------------------5-----------4-----------e--| Rhythm
|(2)-------------------5-----------4-----------s--|
|(2)-------------------3-----------2-----------t--|
|(0)----------------------------------------------|



Quiet bit
~~~~~~~~~
                        "...oh my god your so lonely..."
|-------------------------------------------------|
|-------------------------------------------------|
|----------------------------------------------4--|
|----------------------------------------------4--|
|----------------------------------------------2--|
|-------------------------------------------------|



|-------------------------------------------------|
|-------------------------------------------------|
|(4)-------------------4--------------------------|
|(4)-------------------4-----------------------4--|
|(2)-------------------2-----------------------4--|
|----------------------------------------------2--|



Chorus (modulated up) (play x4)
~~~~~~
 
|-------------------------------------------------|
|-------------*-----------------------*-----------|
|-------6-----7-----6-----------6-----7-----6-----|
|-4--4-----4-----------4-----4-----4-----------7--|
|-------------------------------------------------|
|-------------------------------------------------|
|                                                 |
|       "i'm waiting for your call,  and i'm..."  |
|-------------------------------------------------|
|-------------------------------------------------|
|-------------------------------------------------|
|(4)-------------------------------------------7--|
|(4)-------------------------------------------7--|
|(2)-------------------------------------------5--|



|-------------------------------------------------|
|-------------*-----------------------*-----------|
|-------6-----7-----6-----------6-----7-----6-----|
|(7)-7-----7--------------------------------------|
|----------------------7-----7-----7-----------7--|
|-------------------------------------------------|
|                                                 |
|"ready to take your   six six six in     my heart..."
|-------------------------------------------------|
|-------------------------------------------------|
|----------------------9-----------------------7--|
|(7)-------------------9-----------------------7--|
|(7)-------------------7-----------------------5--|
|(5)----------------------------------------------|


 
|-------------------------------------------------|
|-------------------------------------------------|
|-------6----/7--7--6-----------6-----------------|
|-------------------------------------7--6-----4--|
|(5)-5-----5-----------7-----7-----7--------7-----|
|-------------------------------------------------|
|                                                 |
|                                                 |
|-------------------------------------------------|
|-------------------------------------------------|
|(7)----7--7-----7-----9--------9-----------------|
|(7)----7--7-----7-----9--------9-----7--6-----4--|
|(5)----5--5-----5-----7--------7-----------7--4--|
|----------------------------------------------2--|
 (4th time skip this riff and go right to Finale.)


Finale
~~~~~~

|-------------------------------------------------|  \
|-------------*--*--*-----------------*--*--------|   |
|-------6----/7--7--6-----------6-----7--7--6-----|   | 
|-------------------------------------------------|   |
|(5)-5-----5-----------7-----7-----7-----------5--|   |
|-------------------------------------------------|   |
|                                                 |    > Play x3
|                        "right here in this heart..."|   
|-------------------------------------------------|   |
|-------------------------------------------------|   |
|(7)----7--7-----7-----9--------9--9-----9-----7--|   |
|(7)----7--7-----7-----9--------9--9-----9-----7--|   |
|(5)----5--5-----5-----7--------7--7-----7-----5--|   |
|-------------------------------------------------|  /



|-------------------------------------------------|
|-------------*--*--*-----------------------------|
|-------6----/7--7--6-----------6-----------------|
|-------------------------------------7--6-----11-|
|(5)-5-----5-----------7-----7-----7--------7--9--|
|----------------------------------------------9--|
|                                                 |
|                                                 |
|-------------------------------------------------|
|-------------------------------------------------|
|(7)----7--7-----7-----9-----9--9--9--------------|
|(7)----7--7-----7-----9-----9--9--9--7--6-----4--|
|(5)----5--5-----5-----7-----7--7--7--------7--4--|
|----------------------------------------------2--|



|-------------------------------------------------|
|-------------------------------------------------|
|-------------------------------------------------|
|(11)---\-----------------------------------------|
|(9)----\-----------------------------------------|
|(9)----\-----------------------------------------|
|                                                 |
|                                                 |
|-------------------------------------------------|
|-------------------------------------------------|
|-------------------------------------------------|
|(4)----\-----------------------------------------|
|(4)----\-----------------------------------------|
|(2)----\-----------------------------------------|

End.
Tap to rate this tab
# A B C D E F G H I J K L M N O P Q R S T U V W X Y Z