Him - Love The Hardest Way tab

-----------------------------------------------------------------------------
			     Love The Hardest Way - HIM
-----------------------------------------------------------------------------

Tabbed by: helsinkivampire

Email: cfontain@my.athens.edu


Tuning: Standard E



   Intro                        Main Riff

   F#5                           E5                  A5
e|-------------------5---4-0-|---------------------------------------|
B|---------------------------|---------------------------------------|
G|---------------4/6---6-----|-------------------------2---------2---|
D|--4~-----------------------|---2-2-2----------4-4-4--2--4-4-4--2---|
A|--4~-----------------------|---2-2-2----------4-4-4--0--4-4-4--0---|
E|--2~-----------------------|---0-0-0--4b5r4---2-2-2-----2-2-2------|
                                 . . .


e|------5---4-0-------------------------------------------5---4-0----|
B|-------------------------------------------------------------------|
G|--4/6---6------------------------------2---------2--4/6---6--------|
D|-----------------2-2-2----------4-4-4--2--4-4-4--2-----------------|
A|-----------------2-2-2----------4-4-4--0--4-4-4--0-----------------|
E|-----------------0-0-0--4b5r4---2-2-2-----2-2-2--------------------|
                   . . .

e|------------------|
B|------------------|
G|------------------|
D|--2-2-2-----------|
A|--2-2-2-----------|
E|--0-0-0--4b5r4----|
    . . .


   Verse
                               D5              E5
e|-----------------------------------------------------------|
B|-----------------------------------------------------------|
G|---------2---------2---7-7-7-7-7-7-7-7--9-9-9-9-9-9-9-9----|
D|--4-4-4--2--4-4-4--2---7-7-7-7-7-7-7-7--9-9-9-9-9-9-9-9----|
A|--4-4-4--0--4-4-4--0---5-5-5-5-5-5-5-5--7-7-7-7-7-7-7-7----|
E|--2-2-2-----2-2-2------5-5-5-5-5-5-5-5--7-7-7-7-7-7-7-7----|
                         . . . . . . . .  . . . . . . . .

                           
                           Pre-Chorus

                             Dadd9        E/A
e|------------------------|----------------------|
B|------------------------|-------5--------------|
G|---------2---------2----|----------------------| x 2
D|--4-4-4--2--4-4-4--2----|----4-----------6---7-|
A|--4-4-4--0--4-4-4--0----|--5---5-------7---7---|
E|--2-2-2-----2-2-2-------|----------------------|


e|---------------------------------------------------|
B|---------------------------------------------------|
G|--7--7-7-7-7-7-7-7-7-7-7-7-7--9-9-9-9-9-9-9-9-9\---|
D|--7--7-7-7-7-7-7-7-7-7-7-7-7--9-9-9-9-9-9-9-9-9\---|
A|--5--5-5-5-5-5-5-5-5-5-5-5-5--7-7-7-7-7-7-7-7-7\---|
E|--5--5-5-5-5-5-5-5-5-5-5-5-5--7-7-7-7-7-7-7-7-7\---|



  Chorus


       F#5                A5                D5               E5
e|----------------------------------------------------------------------|
B|----------------------------------------------------------------------|
G|------------------------------------7-7-7-7-7-7-7-7--9-9-9-9-9-9-9-9--| x 2
D|--4-4-4-4-4-4-4-4--7-7-7-7-7-7-7-7--7-7-7-7-7-7-7-7--9-9-9-9-9-9-9-9--|
A|--4-4-4-4-4-4-4-4--7-7-7-7-7-7-7-7--5-5-5-5-5-5-5-5--7-7-7-7-7-7-7-7--|
E|--2-2-2-2-2-2-2-2--5-5-5-5-5-5-5-5--5-5-5-5-5-5-5-5--7-7-7-7-7-7-7-7--|


                                                 B5      A5 Ab5       
e|--------------------------------------------------------------------|
B|--------------------------------------------------------------------|
G|--------14----13------------------14----13--------------------------|
D|-----11----11----11------11----11----11----11---9-pick---7-7--------|
A|--14------------------14----14------------------9-slide--7-7--x-x---|
E|------------------------------------------------7--------5-4--x-x---|
     


  Repeat Main Riff


  Repeat Verse


  Repeat Pre-Chorus

 
  Repeat Chorus



  
  Solo ( wah-wah )

e|---------------------------------------------------------------------|
B|---------------------------------------------------------------------|
G|----------------------------11-11b-11b-11b-11b-----------------------|
D|---------------------------------------------------------6b7r6-------|
A|--7~--9h11p9-7--6-7-6~-----------------------------------------------|
E|------------------------7v-----------------------7h9p7-x-------------|

e|---------------------|
B|---------------------|
G|---------------------|
D|----------9b11r9-----|
A|---------------------|
E|--7h9p7-x------------|





  Chorus 2 ( variation )


       F#5                A5                D5               E5
e|----------------------------------------------------------------------|
B|----------------------------------------------------------------------|
G|------------------------------------7-7-7-7-7-7-7-7--9-9-9-9-9-9-9-9--| x 2
D|--4-4-4-4-4-4-4-4--7-7-7-7-7-7-7-7--7-7-7-7-7-7-7-7--9-9-9-9-9-9-9-9--|
A|--4-4-4-4-4-4-4-4--7-7-7-7-7-7-7-7--5-5-5-5-5-5-5-5--7-7-7-7-7-7-7-7--|
E|--2-2-2-2-2-2-2-2--5-5-5-5-5-5-5-5--5-5-5-5-5-5-5-5--7-7-7-7-7-7-7-7--|


e|-----------------------------------------------------|
B|-----------------------------------------------------|
G|--------14----13------------------14----13-11*ph-----|
D|-----11----11----11------11----11----11--------------|
A|--14------------------14----14-----------------------|
E|-----------------------------------------------------|

                           
                                                     
e|--------------------------------|-----(5)--------|
B|--------12----------------------|-----(5)--------|
G|--------------14----------------|------2---7---9-|
D|-----11----11----11----11---7-7-|--4~--2---7---9-| x2
A|--14----------------14------7-7-|--4~--0---5---7-|
E|----------------------------5-4-|--2~------------|




e|-----------------------------------------------------|
B|-----------------------------------------------------|
G|--------14----13------------------14----13-11*ph-----|
D|-----11----11----11------11----11----11--------------|
A|--14------------------14----14-----------------------|
E|-----------------------------------------------------|

                           
                                                     
e|---------------------------------|
B|--------12-----------------------|
G|--------------14-----------------|
D|-----11----11----11----11---7-7--|
A|--14----------------14------7-7--|
E|----------------------------5-4--|



  Outro
 
         D5            A       Ab5
e|---------------------------------------|
B|---------------------------------------|
G|--7-7-7-7-7-7-7-7----------------------|  x 3
D|--7-7-7-7-7-7-7-7--7-7-7-7--7-7-7-7----|
A|--5-5-5-5-5-5-5-5--7-7-7-7--7-7-7-7----|
E|--5-5-5-5-5-5-5-5--5-5-5-5--4-4-4-4----|



| .   palm mute
| \   slide down
| h   hammer-on
| p   pull-off
| v   vibrato
| *ph   pitch harmonic
| x   Mute note
| b   Bend
| br  Bend release



Tap to rate this tab
 
# A B C D E F G H I J K L M N O P Q R S T U V W X Y Z