Song name
# A B C D E F G H I J K L M N O P Q R S T U V W X Y Z

Him - Gone With The Sin tab

E------------------------------------------------------|
B------------------------------------------------------|
G------9--7--5--4---4--5--7--5--4----------------------|
D-5/7-------------5----------------7--5--7-------------|
A-------------------------------------------7----------|
E------------------------------------------------------|

E----------------------------------------------------------------|
B----------------------------------------------------------------|
G-------9---7--5--7--4--5--7--9--7--5----------------------------|
D--5/7----------------------------------9--7--5------------------|
A------------------------------------------------8--7---5--------|
E-----------------------------------------------------------8--7-|

E----------------------------------------------------------------|
B----------------------------------------------------------------|
G----------------------------------------------------------------|
D--5/7--9--10--9--10--12--14--12--10--9--7--5--------------------|
A----------------------------------------------8--7--5-----------|
E-------------------------------------------------------8--7--5--|

E----------------------------------------------------------------|
B----------------------------------------------------------------|
G----------------------------------------------------------------|
D----------------------------------------------------------------|
A----------------------------------------------------------------|
E-8--7--3--7H8---------------------------------------------------|

This is my first tab but i am sure its 100% right
its really easy to play and the solo is exactly the same but is
played with the boss fuzz peddle
so have fun playing this very easy intro

tabbed by falcan125
Tap to rate this tab
 
# A B C D E F G H I J K L M N O P Q R S T U V W X Y Z