Him - When Love And Death Embrace tab

/ - Slide up
\ - Slide down
~ - Vibrato
b() - Bend
r() - Release
\\\\X - Pick slide down the neck

Intro (heavily distorted)
e|--------------------------------------------------------------------------------|
B|--------------------------------------------------------------------------------|
G|-9-9-9-9-9-9-9-9-\-4-4-4-4-4-4-4-4--5-5-5-5-5-5-5-5------------------7---7---7--|  x4
D|-9-9-9-9-9-9-9-9-\-4-4-4-4-4-4-4-4--5-5-5-5-5-5-5-5--/9--10--9-------7---7---7--|
A|-7-7-7-7-7-7-7-7-\-2-2-2-2-2-2-2-2--3-3-3-3-3-3-3-3-------------10-\-5---5---5--|
E|-7-7-7-7-7-7-7-7-\-2-2-2-2-2-2-2-2--3-3-3-3-3-3-3-3-----------------------------|

Entering to Verse - let ring
e|--------------------------|
B|--------------------------|
G|-5------------------------|
D|-5------------------------|
A|-3------------------------|
E|-3------------------------|

Verse One - without guitar, but you if you like, you can play the bass notes
e|-----------------------------------------------------------|
B|-----------------------------------------------------------|
G|-----------------------------------------------------------|
D|-----------------------------------------------------------| x7
A|-----------------------------------------------------------|
E|---3-3-3-3-3-3-3-3--0-0-0-0-0-0-0-0------------------------|
PM   . . . . . . . .  . . . . . . . .

Entering to Chorus
e|----------------------------------------------|
B|----------------------------------------------|
G|-4----4----4-4----5---------------------------|
D|-4----4----4-4----5---------------------------|
A|-2----2----2-2----3--------\\\\XXXXXXXXXXXXXX-|
E|-2----2----2-2----3--------\\\\XXXXXXXXXXXXXX-|

Chorus - is same as intro
e|--------------------------------------------------------------------------------|
B|--------------------------------------------------------------------------------|
G|-9-9-9-9-9-9-9-9-\-4-4-4-4-4-4-4-4--5-5-5-5-5-5-5-5------------------7---7---7--|  x4
D|-9-9-9-9-9-9-9-9-\-4-4-4-4-4-4-4-4--5-5-5-5-5-5-5-5--/9--10--9-------7---7---7--|
A|-7-7-7-7-7-7-7-7-\-2-2-2-2-2-2-2-2--3-3-3-3-3-3-3-3-------------10-\-5---5---5--|
E|-7-7-7-7-7-7-7-7-\-2-2-2-2-2-2-2-2--3-3-3-3-3-3-3-3-----------------------------|

Entering to Verse - let ring
e|--------------------------|
B|--------------------------|
G|-5------------------------|
D|-5------------------------|
A|-3------------------------|
E|-3------------------------|

Verse Two - this time with guitar
e|-----------------------------------------------|
B|-----------------------------------------------|
G|---0-0-0-0-0-0-0-0-----------------------------|
D|---0-0-0-0-0-0-0-0--2-2-2-2-2-2-2-2------------| x7
A|---2-2-2-2-2-2-2-2--2-2-2-2-2-2-2-2------------|
E|---3-3-3-3-3-3-3-3--0-0-0-0-0-0-0-0------------|
PM   . . . . . . . .  . . . . . . . .

Entering to Chorus
e|-----------------------------------------------|
B|-----------------------------------------------|
G|-4----4----4-4----5----------------------------|
D|-4----4----4-4----5----------------------------|
A|-2----2----2-2----3---------\\\\XXXXXXXXXXXXXX-|
E|-2----2----2-2----3---------\\\\XXXXXXXXXXXXXX-|

Chorus - is same as intro
e|--------------------------------------------------------------------------------|
B|--------------------------------------------------------------------------------|
G|-9-9-9-9-9-9-9-9-\-4-4-4-4-4-4-4-4--5-5-5-5-5-5-5-5------------------7---7---7--|  x4
D|-9-9-9-9-9-9-9-9-\-4-4-4-4-4-4-4-4--5-5-5-5-5-5-5-5--/9--10--9-------7---7---7--|
A|-7-7-7-7-7-7-7-7-\-2-2-2-2-2-2-2-2--3-3-3-3-3-3-3-3-------------10-\-5---5---5--|
E|-7-7-7-7-7-7-7-7-\-2-2-2-2-2-2-2-2--3-3-3-3-3-3-3-3-----------------------------|

Interlude - I'm not sure
e|--3--------------3---------------|
B|--0----0---------0----0----------|
G|--0-------0------0-------0-------| Play it couple times
D|---------------------------------|
A|---------------------------------|
E|---------------------------------|

e|--------------------------|
B|--------------------------|
G|--------------------------|
D|-5--5--5--5--5--5--5--5---|
A|-3--3--3--3--3--3--3--3---|
E|--------------------------|
PM .  .  .  .  .  .  .  .

Chorus - after the interlude (heavily distorted)
e|------------------|-------------------|------------------|------------------|
B|------------------|-------------------|---------3--------|----------7-------|
G|---------4--------|---------0--------|------4-----4---4--|-----7------7---7-| x3
D|-----5------5---5-|-----2------2---2--|---4---4-----4----|---7---7------7---|
A|---5---5------5---|---2---2------2----|-2----------------|-5----------------|
E|-3----------------|-0-----------------|------------------|------------------|

e|----------------------|------------------|
B|----------------------|------------------|
G|-----------4----------|---------0--------|
D|-------5------5----5--|-----2-----2------|
A|----5----5-------5----|---2---2------2~~-|
E|-3--------------------|-0----------------|

Outro
e|-----------------------------------------------------------------|
B|-----------------------------------------------------------------|
G|-4--------5------5--5--5--5--5--5--5--5--------------------------|
D|-4--------5------5--5--5--5--5--5--5--5--------------------------|
A|-2--------3------3--3--3--3--3--3--3--3-------\\\\XXXXXXXXXXXXXX-|
E|-2--------3-----------------------------------\\\\XXXXXXXXXXXXXX-|
PM                 .  .  .  .  .  .  .  .

e|--------------------------------------------------------------------------------|
B|--------------------------------------------------------------------------------|
G|-9-9-9-9-9-9-9-9-\-4-4-4-4-4-4-4-4--5-5-5-5-5-5-5-5------------------7---7---7--|  x4
D|-9-9-9-9-9-9-9-9-\-4-4-4-4-4-4-4-4--5-5-5-5-5-5-5-5--/9--10--9-------7---7---7--|
A|-7-7-7-7-7-7-7-7-\-2-2-2-2-2-2-2-2--3-3-3-3-3-3-3-3-------------10-\-5---5---5--|
E|-7-7-7-7-7-7-7-7-\-2-2-2-2-2-2-2-2--3-3-3-3-3-3-3-3-----------------------------|

Ending Solo
e|-------------------------------------------------------------|
B|-------------------------------------------------------------|
G|-------------------------------------------------------------| x2
D|------5--4~~~------------------------------------------------|
A|---------------2--0--2~~~~-----0--2~~2b(3)--3r(2)-0----------|
E|-/3~~-----------------------3~----------------------3-2---3~~|

Play 'till the end
e|-------------------------------------------------------------------|
B|-------------------------------------------------------------------|
G|-------12--11~~~----------------0-2-4---4b(5)--5r(4)-2-0-------0~~~| 
D|--9~~--------------9--7--9~~~~-----------------------------4-------|
A|-------------------------------------------------------------------|
E|-------------------------------------------------------------------|
Tap to rate this tab
 
# A B C D E F G H I J K L M N O P Q R S T U V W X Y Z