Song name
# A B C D E F G H I J K L M N O P Q R S T U V W X Y Z

Him - One Last Time tab

One Last Time
by His Infernal Majesty

-Guitar 1 is a distorted electric
-Guitar 2 is an acoustic or a clean electric
-The Keyboard may be replaced by another clean electric


Intro
 |Guitar 1
e|-----------------------------------------|
B|-----------------------------------------|
G|-----------------------------------------|
D|-----------------------------------------|
A|-----------------------------------------|
E|-x-x-x-x-x-x-x-x-x-x-x-x-x-x-x-x-x-x-x-x-| <- Do that for a while

Main Riff for Guitar 1
 |Guitar 1
e|-----------------------------------------|
B|-----------------------------------------|
G|-----------------------------------------|
D|----------8~~~-------6~~~----------------|
A|-2~~~-4h6------6p4h6------4h6p4~~~-6p4h6-|
E|-----------------------------------------|

Chords for Guitar 2
 |Guitar 2
 | Bmaj      D#min     Emaj      F#maj
e|-7-7-7-x-x-6-6-6-x-x-4-4-4-x-x-6-6-6-x-x-|
B|-7-7-7-x-x-7-7-7-x-x-5-5-5-x-x-7-7-7-x-x-|
G|-8-8-8-x-x-8-8-8-x-x-4-4-4-x-x-6-6-6-x-x-|
D|-9-9-9-x-x-8-8-8-x-x-6-6-6-x-x-8-8-8-x-x-|
A|-9-9-9-x-x-6-6-6-x-x-x-x-x-x-x-x-x-x-x-x-|
E|-7-7-7-x-x-6-6-6-x-x-x-x-x-x-x-x-x-x-x-x-|
Notice the 666s^

The little keyboard part
 |Keyboard
e|-7-11-9-7-6-2-7-6-4-|
B|--------------------|
G|--------------------|
D|--------------------|
A|--------------------|
E|--------------------|

Verse
 |Keyboard (work out the timing)
e|--------------------------|
B|--------------------------|
G|-6--9--4--2--6--9--4--2-1-|
D|--------------------------|
A|--------------------------|
E|--------------------------|
 |Any Guitar or Keyboard
e|------------|----------|
B|------------|----------|
G|------------|-------3~-|
D|------------|-----4~---|
A|-------8-9~-|---4~-----|
E|-4~-6~------|-2~-------|

Chorus
 |Keyboard
e|-7-11-9-7-6-2-7-6-4-|
B|--------------------|
G|--------------------|
D|--------------------|
A|--------------------|
E|--------------------|
 |Guitar 1
e|-----------------------------------------|
B|-----------------------------------------|
G|-----------------------------------------|
D|----------8~~~-------6~~~----------------|
A|-2~~~-4h6------6p4h6------4h6p4~~~-6p4h6-|
E|-----------------------------------------|
 |Guitar 2
e|-7-7-7-x-x-6-6-6-x-x-4-4-4-x-x-6-6-6-x-x-|
B|-7-7-7-x-x-7-7-7-x-x-5-5-5-x-x-7-7-7-x-x-|
G|-8-8-8-x-x-8-8-8-x-x-4-4-4-x-x-6-6-6-x-x-|
D|-9-9-9-x-x-8-8-8-x-x-6-6-6-x-x-8-8-8-x-x-|
A|-9-9-9-x-x-6-6-6-x-x-x-x-x-x-x-x-x-x-x-x-|
E|-7-7-7-x-x-6-6-6-x-x-x-x-x-x-x-x-x-x-x-x-|

Interlude
 |Guitar 1
e|-------------------------------------|
B|-------------------------------------|
G|-------------------------------------|
D|-6~~~----------------6~~~------------|
A|------4h6p4~~~-6p4h6------4h6p4~~~p0-|
E|-------------------------------------|

Intro
Chorus
Verse
Chorus
Verse 
Chorus
Chorus (without Keyboard)
Interlude
Chorus
Tap to rate this tab
 
# A B C D E F G H I J K L M N O P Q R S T U V W X Y Z