Song name
# A B C D E F G H I J K L M N O P Q R S T U V W X Y Z

Him - Gone With The Sin Live tab

Him - Gone with the Sin Solo Live
Tabbed by Sangre
tupac131191@aol.com

e|-------------------------------------------------------------------------|
B|--2----9---7---5----4---0---4---5---7---5---4---2-------2----------------|
G|----------------------------------------------------4-------1------------|
D|-------------------------------------------------------------------------|
A|-------------------------------------------------------------------------|
E|-------------------------------------------------------------------------|

e|-------------------------------------------------------------------------|
B|--2----9---7---5---7---4---5---7---9---7---5---4----2--0-----------------|
G|-----------------------------------------------------------2---1--0------|
D|----------------------------------------------------------------------2--|
A|-------------------------------------------------------------------------|
E|-------------------------------------------------------------------------|

e|-------------------------------------------------------------------------|
B|----------2---4---5---4---5---7--9----7---5---4---2---0------------------|
G|----------------------------------------------------------2---1----------|
D|---1-------------------------------------------------------------4---2---|
A|-------------------------------------------------------------------------|
E|-------------------------------------------------------------------------|


e|-------------------------------------------------------------------------|
B|-------------------------------------------------------------------------|
G|-------------------------------------------------------------------------|
D|-------------------------------------------------------------------------|
A|---6------4---6---7---6--2--6----7---------------------------------------|
E|-------------------------------------------------------------------------|
Tap to rate this tab
# A B C D E F G H I J K L M N O P Q R S T U V W X Y Z