Song name
# A B C D E F G H I J K L M N O P Q R S T U V W X Y Z

Him - Vampire Heart tab

Intro :
E|--7--0--0--7--0--0--7--0--8--0--0--3--0--0--5--0--|clean
G|--------------------------------------------------|
B|--------------------------------------------------|
D|--------------------------------------------------|2x
A|--------------------------------------------------|
e|--------------------------------------------------|
Verses :
E|--------------------------------------------------|w/distortion
G|--------------------------------------------------|
B|--------------------------------------------------|
D|--------------------------------------------------|
A|--5-5--5-5-5--5-5-5--2-2-2------------------------|
e|--3-3--3-3-3--5-5-5--2-2-2------------------------|

E|--------------------------------------------------|w/distortion
G|--------------------------------------------------|
B|--------------------------------------------------|
D|--------------------------------------------------|2x
A|--5/7--7-7-7-7--3-3-3-3---------------------------|
e|--5/7--7-7-7-7--3-3-3-3---------------------------|

E|--------------------------------------------------|w/distortion
G|--------------------------------------------------|
B|--------------------------------------------------|
D|--------------------------------------------------|
A|--5-5--5-5-5--5-5-5--2-2-2------------------------|
e|--3-3--3-3-3--5-5-5--2-2-2------------------------|

E|--------------------------------------------------|w/distortion
G|--------------------------------------------------|
B|--------------------------------------------------|
D|--7/9--9-9-9--5-5-5-5-----------------------------|2x
A|--5/7--7-7-7--3-3-3-3-----------------------------|
e|--------------------------------------------------|

E|--------------------------------------------------|w/distortion
G|--------------------------------------------------|
B|--------------------------------------------------|
D|--------------------------------------------------|
A|--5-5--5-5-5--5-5-5--2-2-2------------------------|
e|--3-3--3-3-3--5-5-5--2-2-2------------------------|

E|--2-----2-----0-----0-----3-----3-----0-----0-----|w/distortion
G|----3-3---3-3---3-3---3-3---3-3--3-3----3-3---3-3-|
B|--------------------------------------------------|
D|--------------------------------------------------|4x
A|--------------------------------------------------| 
e|--------------------------------------------------|  

E|--------------------------------------------------|w/distortion
G|--------------------------------------------------|{Palm Muted}
B|--------------------------------------------------|
D|--------------------------------------------------|
A|-{5-5-5-5-5-5-5-5-5}------------------------------|
e|-{3-3-3-3-3-3-3-3-3}-3-3-3-3-3-5~~~---------------|
Chorus :                                                       
E|--------------------------------------------------|w/distortion
G|--------------------------------------------------|
B|--------------------------------------------------|
D|-2--2-2--5--5-5-----------------------------------|2x
A|-2--2-2--3--3-3---5--5-5--5--5-5----2--2-2--3--3-3|
e|-0--0-0---------0-3--3-3--5--5-5--0-2--2-2--3--3-3|

E|--------------------------------------------------|w/distortion
G|--------------------------------------------------|
B|--------------------------------------------------|
D|-0-7-4-0-5-4-0-7-4-0-5-4-0-7-4-0-5-4--------------|
A|--------------------------------------------------|
e|--------------------------------------------------|
 
E|--------------------------------------------------|w/distortion
G|--------------------------------------------------|{Palm Muted}
B|--------------------------------------------------|
D|---------------------------------7*~~-------------|4x
A|--------------------------------------------------|
e|---{0-10-8-0-8-7-0-10-8-0-8-7-0}------------------|

E|--------------------------------------------------|w/distoriton
G|--------------------------------------------------|{Palm Muted}
B|--------------------------------------------------|
D|------------------------------------7*~~~---------|3x
A|----12-10---10\9---12\10---10\9-------------------|
e|--0-10-8--0-8-\7-0-10\8--0-8-\7-{0}---------------|

E|--------------------------------------------------|w/distortion
G|--------------------------------------------------|{Palm Muted}
B|--------------------------------------------------|
D|---------------------------------7*~~~-7*~~~-7*~~~|
A|---12-10---10\9---12\10---10\9--------------------|
e|-0-10-8--0-8-\7-0-10\8--0-8-\7-{0}---{0}---{0}----|

E|--------------------------------------------------|w/distortion
G|--------------------------------------------------|
B|--------------------------------------------------|
D|---------7--7-7-----------------------------------|2x
A|-4--4-4--5--5-5---7--7-7--7--7-7---4--4-4--5--5-5-|
e|-2--2-2---------0-5--5-5--7--7-7-0-4--4-4--5--5-5-|

E|--------------------------------------------------|w/distortion        
G|--------------------------------------------------|
B|--------------------------------------------------|
D|--0-7-4-0-5-4-0-7-4-0-5-4-0-7-4-0-5-4-------------|
A|--------------------------------------------------|
e|--------------------------------------------------|

E|--------------------------------------------------|w/distortion
G|--------------------------------------------------|{Palm Muted}
B|--------------------------------------------------|
D|--------------------------------------------------|16x
A|--------------------------------------------------|
e|--{0-10-8-0-8-7-0-10-8-0-8-7}---------------------|

Thank you.
Please Rate !
Tap to rate this tab
# A B C D E F G H I J K L M N O P Q R S T U V W X Y Z