Song name
# A B C D E F G H I J K L M N O P Q R S T U V W X Y Z

Him - Its All Tears Acoustic tab

-------------------------------------------------------------------------------
			     It's all Tears (Unplugged) - HIM
-------------------------------------------------------------------------------

Tabbed by: Nick Buchwald	
Email: Villevalo462@hotmail.com

Tuning:Standard EABGDe

 
Bass intro
G|-----------------------------------------------|
D|-----------------------------------------------|
A|--------2--------2-------2-----3---------------|
E|--0-2-3----0-2-3---0-2-3---0-2-----------------|


Intro/Chorus
e|-----------------------------------------------|
B|-----------------------------------------------|
G|--/5-4-2-4-4-----------------------------------|x2 (Part 1)
D|-------------5-/7-5-4-5-5-5-/7-4-2-0-2---------|
A|-----------------------------------------------|
E|-----------------------------------------------|

e|--/8-7-5-7-7-----------------------------------|
B|-------------8-/10-8-7-8-8-8-/10-7-5---5-------|
G|-------------------------------------7---------|x2 (Part 2)- Same riff as part 1 up 1 octave
D|-----------------------------------------------|
A|-----------------------------------------------|
E|-----------------------------------------------|


SOLO? send feedback!!

| /  slide up
| \  slide down
| h  hammer-on
| p  pull-off
| ~  vibrato
| *  harmonic
| x  Mute note

===============================================================================
Tap to rate this tab
 
# A B C D E F G H I J K L M N O P Q R S T U V W X Y Z