Song name
# A B C D E F G H I J K L M N O P Q R S T U V W X Y Z

Him - Disarm Me With Your Loneliness tab

-------------------------------------------------------------------------------
                             Disarm Me - HIM
-------------------------------------------------------------------------------
Tabbed by: elda123
E-mail: iosip.eldar@gmail.com
Source: HIM - Disarm me with your Loneliness (Rock am Ring 2010)

Tuning: E Standard.

Chords:
    G: 320033
    D: xx0232
Cadd9: x3203x
  Em7: x2203x
  
Sound:
Clean - turn on your clean chanel and add some reverb; 
Distorted - turn on your half-gain distorted chanel.

-------------------------------------------------------------------------------
                             Tabaluture
-------------------------------------------------------------------------------
Intro: 

/* Clean */ 
[:start first G chord upstroke:]
G-D-Cadd9-G-Cadd9-G-D

/* Distorted */
                    Em7         D        Cadd9    G         xx     xx      D
e|-------------|----------|-------2---|--------|-x---|----|--------------|-2-|
B|-------------|------3---|--3-----3--|--------|-3~~-|----|--------------|-3-|
G|-2(3)2p------|-------0--|--2--------|----0---|-0~~-|-0--|--------------|-2-|
D|---------4p--|-2--------|--0--------|-----2--|-0~~-|--2-|-22-----------|-0-|
A|-------------|-2--------|-----------|-3------|-2~~-|----|-33-3~--------|-x-|
E|-------------|----------|-----------|--------|-3~~-|----|--------33-3~-|-x-|

Verse: 

/* Clean */ 
[: Always play chord downstroke-pause-upstroke! :]
  
  (|                    Cadd9      |)                Am
 ( |              e|------------|  | )         e|-----------|
(  |              B|------3~~---|  |  )        B|----3--0---|
(  |  Em7-D-G-D-  G|---0--------|  |  ) 2x     G|-----------|
(  |              D|--2-2-------|  |  )        D|--2--------|
 ( |              A|-3----------|  | )         A|-0---------| 
  (|              E|------------|  |)          E|-----------|

Bridge:

/* Clean */
e|--------------------------------|    |-------------------------------|-12+-|
B|-------------------12-----------|    |-------------------12----------|-12+-|
G|----14----14----14----14----14--|    |----14----14----14----14----14-|-12+-|
D|-12----12----12----------12-----| 2x |-14----14----14----------14----|-----|
A|--------------------------------|    |-------------------------------|-----|
E|--------------------------------|    |-------------------------------|-----|

Chorus:

/* Distorted */
  (|                          e|-------------|   |)
 ( |                          B|-------------|   | )
(  |                 x        G|-2(3)2p------|   |  )
(  | Em7-D-Cadd9-G-Cadd9-G-D~ D|---------4p--|   |  ) 2x
 ( |                          A|-------------|   | )
  (|                          E|-------------|   |)


Verse:

/* Clean */
[: Always play chord downstroke-pause-upstroke! :]
  
  (|                    Cadd9      |)                Am
 ( |              e|------------|  | )         e|-----------|
(  |              B|------3~~---|  |  )        B|----3--0---|
(  |  Em7-D-G-D-  G|---0--------|  |  ) 2x     G|-----------|
(  |              D|--2-2-------|  |  )        D|--2--------|
 ( |              A|-3----------|  | )         A|-0---------| 
  (|              E|------------|  |)          E|-----------|
  
Bridge: /* Clean */                                                      x
e|--------------------------------|    |-------------------------------|------|
B|-------------------12-----------|    |-------------------12----------|------|
G|----14----14----14----14----14--|    |----14----14----14----14----14-|------|
D|-12----12----12----------12-----| 2x |-14----14----14----------14----|-7----|
A|--------------------------------|    |-------------------------------|-7(13x)
E|--------------------------------|    |-------------------------------|-5----|

Chorus:
 
/* Distorted */
  (|                          e|-------------|   |)
 ( |                          B|-------------|   | )
(  |                 x        G|-2(3)2p------|   |  )
(  | Em7-D-Cadd9-G-Cadd9-G-D~ D|---------4p--|   |  ) 2x
 ( |                          A|-------------|   | )
  (|                          E|-------------|   |)
  
Bridge2: 

/* Distorted - play each 6x downstroke and last one till the silent */
e|----------------------------|
B|-10-12-13--15--17--19--20---|
G|-*--*--*---*---*---*---*----|
D|-7--9--10--12--14--16--17---|
A|----------------------------|
E|----------------------------|

Solo:

e|---------------------------------------------------------------------------|
B|-15~--15-13-12h13p12-------------------------------------------------------|
G|-----------------------14~--14-12-11h12p11---------------------------------|
D|--------------------------------------------14~--14-12---------------------|
A|-------------------------------------------------------14-12-12b(1/2)-12~--|
E|---------------------------------------------------------------------------|

e|---------------------------------------------------------------------------|
B|---------------------------------------------------------------------------|
G|--------------------------12\14--12----------------------------------------|
D|--------12-----12\14--12---------------------------------------------------|
A|--12\14----14--------------------------------------------------------------|
E|---------------------------------------------------------------------------|

[:In the end make 3 full slow bends and then 
slide on E string straight to the head of your guitar:]
e|----------------------------------------------(12---)----------------------|
B|-15~--15-13-12h13p12--------------------------(--15b)----------------------|
G|-----------------------14~--14-12-11h12p11---------------------------------|
D|---------------------------------------------------------------------------|
A|---------------------------------------------------------------------------|
E|----------------------------------------------------------12/7-------------|

Chorus:

/* Clean */
Em7-D-Cadd9-G-Cadd9-G
 
/* Distorted */   
each chord 6x
e|-------------------------------------------------------------------------|
B|--11--12--14\0-----------------------------------------------------------|
G|--*---*---*--------------------------------------------------------------|
D|--9---10--12\0-----------------------------------------------------------|
A|-------------------------------------------------------------------------|
E|-------------------------------------------------------------------------|

Chorus: 

/* Distorted */
                         e|-------------| 
                         B|-------------| 
                x        G|-2(3)2p------|         
Em7-D-Cadd9-G-Cadd9-G-D  D|---------4p--|  
                         A|-------------| 
                         E|-------------|
        x                                           
Em7-D-Cadd9-"slide by your pick E and A strings"-Cadd9-G 
  
Bridge2: 

/* Distorted - play each 6x downstroke */
e|----------------------------|
B|-10-12-13--15--17--19--20---|
G|-*--*--*---*---*---*---*----|
D|-7--9--10--12--14--16--17---|
A|----------------------------|
E|----------------------------|

Outro:

repeat 3x

e|-------------------------------------|----|----------------------------|
B|-------------------------------------|-5~-|--------5--------5----------|
G|--7~--7--5-4h5p4---------------------|-5~-|----5--------5--------5-----|
D|-----------------7~--7-5--4h5p4------|-5~-|------5--------5--------5~--|
A|---------------------------------7~--|-7~-|--7--------7--------7-------|
E|-------------------------------------|----|----------------------------|
                                                   Cadd9           G(clean)
e|------------------------------------|-----------------------0-----|-3~-|
B|------------------------------------|------3------------3----3----|-3~-|
G|--7~--7--5-4h5p4--------------------|--0-----0------0-----0---0~~-|-0~-|
D|-----------------7~--7-5--4h5p4-----|----2-----2------2-----------|-0~-|
A|---------------------------------7~-|-3------------3--------------|-2~-|
E|------------------------------------|-----------------------------|-3~-|



************************************

| .   mute
| /   slide up
| \   slide down
| h   hammer-on
| p   pull-off
| ~   vibrato
| +   harmonic
| x   Mute note
| b   Bend
| 1/2 Half-bend

************************************
Tap to rate this tab
# A B C D E F G H I J K L M N O P Q R S T U V W X Y Z