Song name
# A B C D E F G H I J K L M N O P Q R S T U V W X Y Z

Him - Razorblade Kiss tab

This is my first tab so if there is any errors tell me.
There's other versions of the solo if you want them ill submit them.
Artist:HIM
Song:Razorblade Kiss

Slide://
Bend:~
Pulloff:(p)
Hammeron:(h)
Tone:Distortion

Enjoy! :)

|--------------------------------------------------------------------------|
|--------------------------------------------------------------------------|
|--------------------------------------------------------------------------|
|--------------------------------------------------------------------------|
|-----------------------11--1414-11-14-11----11--1414-11-14-11------s11----|
|--7---9-1212-9-12-9-7--------------------14--------------------14---------|



|--------------------------------------------------------------------------|
|--------------------------------------------------------------------------|
|---------------------------------------------13(x10)-11--p13--------------|
|--------------11--14--~11------------14--~11-----------------14-~13-------|
|--11--14--11--------------11-14--11---------------------------------------|
|--------------------------------------------------------------------------|

|--------------------------------------------------------------------------|
|-------------------------12-----------------------------------------------|
|----13-----11----9-----9---------14------13------11--9--p11-(x4)----------|
|--------11----11----11-------11------11------11---------------------------|
|--------------------------------------------------------------------------|
|--------------------------------------------------------------------------|

|--------------------------------------------------------------------------|
|-------------------~18(19)(x4)-~20(21)(x4)--~21(22)(x4)--~22(23)(x4)------|
|---11--p13(x4)------------------------------------------------------------|
|--------------------------------------------------------------------------|
|--------------------------------------------------------------------------|
|--------------------------------------------------------------------------|

Tab By:Villy elmo,

Contact me at :rockadi@hotmail.com

Tap to rate this tab
# A B C D E F G H I J K L M N O P Q R S T U V W X Y Z