Song name
# A B C D E F G H I J K L M N O P Q R S T U V W X Y Z

Him - Circle Of Fear tab

Tab by : Dark Circle 666

HIM : Circle Of Fear
Album: Love Metal
Guitarist: Linde

Standard Tuning


b: Bend
p: Pull - Off
h: Hammer On
/: slide up
\: slide down


Intro:
                                3X
e----------------------------------------------------------------------------|
B----------------------------------------------------------------------------|
G----------------------------------------------------------------------------|
D--5-5-7----------9---10b-------9-------------9-----10b----------------------|
A--5-5-7------7p5---7-------7p5---7-10b---7p5----7-------7h8p7-5---5---------|
E--3-3-5----5-------------5-------------5------------------------8----7-3/5--|

e----------------------------------------------------------------------------|
B----------------------------------------------------------------------------|
G----------------------------------------------------------------------------|
D------------9---10b-------9-------------9-----10b---------------------------|
A--------7p5---7-------7p5---7-10b---7p5----7-------7h8p7-5---5------7-------|
E-----5-------------5--------------5------------------------8----7-3-5-------|

Verse:

e----------------------------------------------------------|
B-------1-------1-----------1---------1--------0-----------|
G-----2---2---2---2-------2---2-----2---2----2---2---------|
D----------------------------------------------------------|  7X
A--0-------3-----------------------------------------------|
E---------------------3-----------3--------3---------------|

e------------------------------------------------------------|
B-------1-------1-----------1---------1----------------------|
G-----2---2---2---2-------2---2-----2---2--------------------|
D-------------------------------------------2-2--------------|
A--0-------3--------------------------------2-2-5------------|
E---------------------3-----------3---------0-0-5------------|

Chorus:
                              3X
e----------------------------------------------------------------------------|
B----------------------------------------------------------------------------|
G----------------------------------------------------------------------------|
D------------9---10b-------9-------------9-----10b---------------------------|
A--------7p5---7-------7p5---7-10b---7p5----7-------7h8p7-5---5--------------|
E-----5-------------5--------------5------------------------8----7-3/5-------|


e---------------------------------------------------------|
B---------------------------------------------------------|
G---------------------------------------------------------|
D------------9---10b-------9------------------------------|
A--------7p5---7-------7p5---7-10b------------------------|
E-----5-------------5-------------------------------------|

Verse :

e----------------------------------------------------------|
B-------1-------1-----------1---------1--------0-----------|
G-----2---2---2---2-------2---2-----2---2----2---2---------|
D----------------------------------------------------------|  5X
A--0-------3-----------------------------------------------|
E---------------------3-----------3--------3---------------|

e------------------------------------------------------------|
B-------1-------1-----------1---------1----------------------|
G-----2---2---2---2-------2---2-----2---2--------------------|
D-------------------------------------------2-2--------------|
A--0-------3--------------------------------2-2-5------------|
E---------------------3-----------3---------0-0-5------------|

Chorus:
                              3X
e----------------------------------------------------------------------------|
B----------------------------------------------------------------------------|
G----------------------------------------------------------------------------|
D------------9---10b-------9-------------9-----10b---------------------------|
A--------7p5---7-------7p5---7-10b---7p5----7-------7h8p7-5---5--------------|
E-----5-------------5--------------5------------------------8----7-3/5-------|


e---------------------------------------------------------|
B---------------------------------------------------------|
G---------------------------------------------------------|
D------------9---10b-------9------------------------------|
A--------7p5---7-------7p5---7-10b------------------------|
E-----5-------------5-------------------------------------|


At next:

e----------------------------------------------------------|
B-------1-------1-----------1---------1--------0-----------|
G-----2---2---2---2-------2---2-----2---2----2---2---------|
D----------------------------------------------------------|
A--0-------3-----------------------------------------------|
E---------------------3-----------3--------3---------------|

e------------------------------------------------------------|
B-------1-------1-----------1---------1----------------------|
G-----2---2---2---2-------2---2-----2---2--------------------|
D-------------------------------------------2-2--------------|
A--0-------3--------------------------------2-2-5------------|
E---------------------3-----------3---------0-0-5------------|

Chorus:

                    10X
e----------------------------------------------------------------------------|
B----------------------------------------------------------------------------|
G----------------------------------------------------------------------------|
D------------9---10b-------9-------------9-----10b---------------------------|
A--------7p5---7-------7p5---7-10b---7p5----7-------7h8p7-5---5--------------|
E-----5-------------5--------------5------------------------8----7-3/5-------|

e----------------------------------------------------------------------------|
B----------------------------------------------------------------------------|
G----------------------------------------------------------------------------|
D------------9---10b-------9-------------9-----10b---------------------------|
A--------7p5---7-------7p5---7-10b---7p5----7-------7h8p7-5---5------7-------|
E-----5-------------5--------------5------------------------8----7-3-5-------|

So that is it

So enjoy it =)

HIM - 4 - Life

Comments are welcome !!
Tap to rate this tab
# A B C D E F G H I J K L M N O P Q R S T U V W X Y Z