Song name
# A B C D E F G H I J K L M N O P Q R S T U V W X Y Z

Him - The Sacrament Acoustic tab

Chords Used:

   Csus9   Asus4    Em7    Dsus4    Dsus     G      Am
e|---x---|---x---|---x---|---3---|---0---|---x---|---x---|
B|---3---|---3---|---3---|---3---|---3---|---3---|---1---|
G|---0---|---2---|---0---|---2---|---2---|---0---|---2---|
D|---2---|---2---|---2---|---0---|---0---|---0---|---2---|
A|---3---|---0---|---2---|---0---|---0---|---4---|---0---|
E|---x---|---x---|---0---|---x---|---x---|---3---|---x---|



Intro (lol its long)-

e|------------------------------------5-----5-|
B|---5-------5--------5-------5---------5-----|
G|-----5p4h5---5p4h5p---5p4h5---5p4h5-----5---|
D|--------------------------------------------|
A|---0----------------0-----------------------|
E|--------------------------------------------|   

e|---3-------3---------------3--------|
B|-----0---0---0---0---0---0---0---0--|
G|-------0-------0-------0-------0----|
D|---2---------------2----------------|
A|------------------------------------|
E|------------------------------------| 

e|------------------------------------5-----5-|
B|---5-------5--------5-------5---------5-----|
G|-----5p4h5---5p4h5p---5p4h5---5p4h5-----5---|
D|--------------------------------------------|
A|---0----------------0-----------------------|
E|--------------------------------------------|   

e|---3-------3---------------3--------|
B|-----0---0---0---0---0---0---0---0--|
G|-------0-------0-------0-------0----|
D|---2---------------2----------------|
A|------------------------------------|
E|------------------------------------| 

e|------------------------------------5-----5-|
B|---5-------5--------5-------5---------5-----|
G|-----5p4h5---5p4h5p---5p4h5---5p4h5-----5---|
D|--------------------------------------------|
A|---0----------------0-----------------------|
E|--------------------------------------------|

e|---3-------3-----3--2-----2-2h3p2-------|
B|-----0---0---0--------3-----------3-----|
G|-------0-------0--------2-----------2---|
D|---2----------------0-------0-----------|
A|----------------------------------------|
E|----------------------------------------|

e|--------------------------------------5-----5---3>--|
B|---5-------5--------5-------5-----------5-------0>--|
G|-----5p4h5---5p4h5p---5p4h5---5p4h5-------5-----0>--|
D|------------------------------------------------2>--|
A|---0----------------0---------------------------x>--|
E|------------------------------------------------x>--|

e|---x-x--------x-x--------x-------|
B|---1-1--------1-1--------3-------|
G|---0-0-strum--0h2-strum--0-strum-|
D|---0h2--------0h2--------2-------|
A|---0h3--------x-x--------2-------|
E|---x-x--------x-x--------x-------|

e|---x-x--------x-x--------x-------|
B|---1-1--------1-1--------3-------|
G|---0-0-strum--0h2-strum--0-strum-|
D|---0h2--------0h2--------2-------|
A|---0h3--------x-x--------2-------|
E|---x-x--------x-x--------x-------|

e|---x-x--------x-x--------x--------2--2--0--2--2h3p2-----2-|
B|---1-1--------1-1--------3--------3--3--------------3-----|
G|---0-0-strum--0h2-strum--0-strum--2--2--------2-------2---|
D|---0h2--------0h2--------2--------0-----------------------|
A|---0h3--------x-x--------2--------x-----------------------|
E|---x-x--------x-x--------x--------x-----------------------|

e|---x-x--------x-x---------------x-|
B|---1-1--------1-1---------------0-|
G|---0-0-strum--0h2-strum---------0-|
D|---0h2--------0h2---------------2-|
A|---0h3--------x-x---------------2-|
E|---x-x--------x-x---------2b-0--x-|



Verse-
             
   Am                  Cadd9
I hear you breathe so far from me
   Am                  Cadd9
I feel your touch so close and real
       D        Em7             Cadd9      G
And I know my church is not of silver and gold,
D          Em7          Cadd9       G
It's glory lies beyond judgement of souls
D       Em7                  Cadd9  G  D-Dsus2-D
The commandments are of consolation and warmth 



First chorus-  (A second guitar could play the intro-optional)

  Csus9         Asus4         Em7
  You know our sacred dream won't fail
  Csus9         Asus4         Em7
  The sanctuary tender and so frail
  Csus9         Asus4
  The sacrament of love
  Em7       D-Dsus4-D
  The sacrament of warmth is true
  Csus9  Asus4   G-Em7
  The sacrament is you


verse 2:
     
 Am                Cadd9
I hear you weep so far from me
   Am                           Cadd9
I taste your tears like you're next to me
       D             Em7             Cadd9     G
And I know that our prayers are not enough to heal
D       Em7              Csus9       G
Oh the ancient runes so deep and so dear
D     Em7              Csus9    G  D-Dsus2-D
The revelation is of hatred and fear


Second chorus-  (A second guitar could play the intro-optional)

  Csus9         Asus4         Em7
  You know our sacred dream won't fail
  Csus9         Asus4         Em7
  The sanctuary tender and so frail
  Csus9         Asus4
  The sacrament of love
  Em7       D-Dsus4-D
  The sacrament of warmth is true
  Csus9  Asus4   G-Em7
  The sacrament is you

Outro:
Em7              Cadd9  Am    Em7
The sacrament is yoooooouuuu Oooh
Em7              Cadd9  Am    Em7
The sacrament is yooooooouuu Oooh
Em7              Cadd9  Am     Em7   D   Cadd9   Am              Em  
The sacrament is yoooooooouuuu Aooooooooohhh The Sacrament is you




Tap to rate this tab
# A B C D E F G H I J K L M N O P Q R S T U V W X Y Z