Song name
# A B C D E F G H I J K L M N O P Q R S T U V W X Y Z

Him - The Vampire tab

OK THIS IS ON A RARE VERSION OF THEIR LATEST CD CALLED LOVE METAL

INTRO

|-------------------------------------------|
|-------------------------------------------|
|-------4-----------------------------------|
|-----4---4------4-------3-------4----------|
|---2----------4---4---3---3---4---4--------|
|------------2-------5-------2--------------|



THE REST OF THE SONG


|-------------------------------------------|
|-------------------------------------------|
|--444--------------------------------------|
|--444--444444--33333--444444---------------|
|--222--444444--33333--444444---------------|
|-------222222--55555--222222---------------|




THATS IT, ITS PRETTY EASY AND ITS A GREAT SONG
Tap to rate this tab
# A B C D E F G H I J K L M N O P Q R S T U V W X Y Z