Song name
# A B C D E F G H I J K L M N O P Q R S T U V W X Y Z

Him - All Lips Go Blue chords

This is my first tab so please, go easy on me =)

Intro:
-----------------------------------|
-----------------------------------|
44-44-------------44-44------------|
44-44-------------44-44------------|
22-22-540-540-540-22-22-547-547-54-|
-----------------------------------|

Verse:
--------------------------------------|
--------------------------------------|
444442222277777----------22222------4-|b
44444222227777722222555552222244-44-4b To sound like Linde
22222000005555522222555550000044-44-2b bend that last chord
---------------0000033333-----22-22---|

------------------------------------------------|
------------------------------------------------|
44444------77777----------222227777777722222222-| Listen to the song
44444555555777772222255555222227777777722222222 to figure out how
22222555555555552222255555000005555555500000000 to play those last
-----333333-----0000033333--------------------- chords

Chorus:
-------------------------------------------------|
-------------------------------------------------|
44-444-----77-777-----44-444-----777777722222222-|
44-4445555577-7774444444-44455555777777722222222-|
22-2225555555-5554444422-22255555555555500000000-|
------33333------22222------33333----------------|

Now for verse 2 only play the second line of the first verse
and then go into the chorus playing it twice before the post
chorus

Post Chorus:
----------------------------------------|
----------------------------------------|
4444444477777774444444---------------4--|b
444444447777777444444444444444-22-44-4--|b
222222225555555222222244444444-22-44-2--|b
----------------------22222222-00-22----|

Interlude:
-----------------------|
-----------------------|
-----------------------|
-4-0---2--------4-0----|
2-2--0--02b----2-2-----|
-----------0-------54--|b

I'm not going to lie, I don't have a clue what Linde
plays during the solo, so either play the interlude
again, or freestyle. If you play the interlude again
after play the 3rd fret of the E (top) string, as
well, and then play:

---------------------------|
---------------------------|
44444444--------444444442--|b
4444444444444444444444442b-|
2222222244444444222222220--|
--------22222222-----------|

Play the first part of the chorus clean, pick scrap
and then play the rest of the chorus twice, play
the post chorus without the final three chords
twice, and then for the outro it's just

Outro:

-----------------|
-----------------|
44-44-4444444/9\4 The / means slide up and
44-44-4444444/9\4 \ means slide down
22-22-2222222/7\2|
-----------------|

So, I hope you can understand that. Please leave
comments and rate. Also if you want to learn Into
The Night or No Love please go here:
http://profile.ultimate-guitar.com/Pat93/contributions/tabs/
Hearts At War coming soon
Tap to rate this tab
# A B C D E F G H I J K L M N O P Q R S T U V W X Y Z