Song name
# A B C D E F G H I J K L M N O P Q R S T U V W X Y Z

Him - Passions Killing Floor tab

HIM
Passions Killing Floor
Tuning: DADGBE

(Don't know specifically what tuning they use on guitar, but this is roughly what I came 
up with, it still works, but you can probably use a whammy or an octave pedal to make 
the song sound darker, we have the technology lol)

Intro: (think a flanger is used) 
Guitar 1

E--------------------------------------------------------|
B--------------------------------------------------------|
G--------------------------------------------------------|
D--------------------------------------------------------|
A---4-4-4---2-0h2h0-------2-2-2--0-----------------------|
D-4-4-4-----------------6--2-2-2------6h7h6-2------------|

Guitar 2 (There's a bit of piano in there)

E--------------------------------------------------------|
B------------14-15----------------14---------------------|
G----13-14------------------13-14----13------------------|
D-16---------------------16------------------------------|
A--------------------------------------------------------|
D--------------------------------------------------------|

Verse:
Guitar 1

  E Gb    E Gb      E Gb    E Gb      A B         A B   E Gb    E Gb
E------------------------------------------------------------------------|
B------------------------------------------------------------------------|
G------------------------------------------------------------------------|
D-2-4-4-4-2-4-4-4---2-4-4-4-2-4-4-4---7-9-9-9-7-9-9-9---2-4-4-4-2-4-4-4--|
A-2-4-4-4-2-4-4-4---2-4-4-4-2-4-4-4---7-9-9-9-7-9-9-9---2-4-4-4-2-4-4-4--|
D-2-4-4-4-2-4-4-4---2-4-4-4-2-4-4-4---7-9-9-9-7-9-9-9---2-4-4-4-2-4-4-4--|

Pre-chorus:
Guitar 1

  D  Db   A     E Ab Gb   D   Db  A     E
E----------------------------------------------------------------------------|
B----------------------------------------------------------------------------|
G-7---6-------------------7---6----------------------------------------------|
D-7---6---7-----2--6--4---7---6---7-----2--2--2--2--2--2---------------------|
A-5---4---7-----2--6--4---5---4---7-----2--2--2--2--2--2----------2--0h2h0---|
D---------7-----2--6--4-----------7-----2--2--2--2--2--2------------------2--|

Chorus:
Guitar 1

  Gb               B                D                A
E--------------------------------------------------------------|
B--------------------------------------------------------------|
G------------------4444444444444444-7777777777777777-----------|
D-4444444444444444-4444444444444444-7777777777777777-77777777--|
A-4444444444444444-2222222222222222-5555555555555555-77777777--|
D-4444444444444444-----------------------------------77777777--|

Guitar 1(Continued)

    A        E  Gb  Ab Gb  E
  E--------------------------|
  B--------------------------|
  G--------------------------|
> D-77777777-2--4---6--4---2-|
> A-77777777-2--4---6--4---2-|
> D-77777777-2--4---6--4---2-|

Guitar 2 (Piano, not quiet sure if it is a piano or if this is correct but it looks as 
if you can solo this using the Gb pentatonic minor anyways)

E-----------------------------------------------------------|
B-----------------14-15-----------------------14-15---------|
G----14----14-16----------16--------14--14-16-------16-13---|
D-16---16--------------------14--16---16--------------------|
A-----------------------------------------------------------|
D-----------------------------------------------------------|

>Intro
>Verse 2nd
Guitar 1(does same riff as before)
Guitar 2(piano part)

E----------14---------------------------14-------------|
B-15-14-15---15-14-15-14-------15-14-15---15-14-15-----|
G------------------------------------------------------|
D--------------------------------------------------16--|
A------------------------------------------------------|
D------------------------------------------------------|

>Chorus

Interlude: (After second Chorus) Repeat x2
Guitar 1 
                        
                    
Tap to rate this tab
# A B C D E F G H I J K L M N O P Q R S T U V W X Y Z