Song name
# A B C D E F G H I J K L M N O P Q R S T U V W X Y Z

Him - Drawn And Quartered tab

Intro

e|---------------|-------------|--------9--------|-------2-4-2-0---|
B|-------2-------|-------------|------9---9------|---------------0-|
G|-----2---2-----|-------------|----9-------9----|-----------------|
D|---2-----------|-------4-----|-11-----------11-|-----2-----------|
A|-0-----------0-|---0-4---4-0-|-----------------|---2-------------|
E|-----------4---|-2-----------|-----------------|-0---------------|

|---------------|-------------|-----------------|-----------------|
|-------2-------|-------------|-----------------|-----------------|
|-----2---2-----|-------------|-6-6-6-6-6-6-6-6-|-6-6-6-6-6-6-6-6-|
|---2-----------|-------4-----|-6-6-6-6-6-6-6-6-|-6-6-6-6-6-6-6-6-|
|-0-----------0-|---0-4---4---|-4-4-4-4-4-4-4-4-|-4-4-4-4-4-4-4-4-|
|-----------4---|-2---------2-|-----------------|-----------------|

|---------|-------------|---------|-------------|---------|-----------|
|---------|-------------|---------|-------------|---------|-----------|
|-2-2-2-2-|-------------|-6-6-6-6-|-------------|-2-2-2-2-|-4-4-4-4---|
|-2-2-2-2-|-4-4-4-4-4-4-|-6-6-6-6-|-2-2-2-2-2-2-|-2-2-2-2-|-4-4-4-4---|
|-0-0-0-0-|-4-4-4-4-4-4-|-4-4-4-4-|-2-2-2-2-2-2-|-0-0-0-0-|-2-2-2-2-\0|
|---------|-2-2-2-2-2-2-|---------|-0-0-0-0-0-0-|---------|---------\0|

Verse 1

|-9-9-9-9-|-7-7-7-7-|-9--9--9--9--|-11-11-11-11-|
|-9-9-9-9-|-9-9-9-9-|-10-10-10-10-|-12-12-12-12-|
|-9-9-9-9-|-9-9-9-9-|-9--9--9--9--|-11-11-11-11-|
|---------|---------|-------------|-------------|
|---------|---------|-------------|-------------|
|---------|---------|-------------|-------------|

We could be like all the others with nowhere to go

|-9-9-9-9-|-7-7-7-7-|-9--9--9--9--|-11-11-11-11---|
|-9-9-9-9-|-9-9-9-9-|-10-10-10-10-|-12-12-12-12---|
|-9-9-9-9-|-9-9-9-9-|-9--9--9--9--|-11-11-11-11---|
|---------|---------|-------------|---------------|
|---------|---------|-------------|-------------\0|
|---------|---------|-------------|-------------\0|

Paint ourselves into a corner with hope

|-----------------|-----------------|-----------------|-----------------|
|-----------------|-----------------|-----------------|-----------------|
|-6-6-6-6-6-6-6-6-|-----------------|-2-2-2-2-2-2-2-2-|-4-4-4-4-4-4-4-4-|
|-6-6-6-6-6-6-6-6-|-2-2-2-2-2-2-2-2-|-2-2-2-2-2-2-2-2-|-4-4-4-4-4-4-4-4-|
|-4-4-4-4-4-4-4-4-|-2-2-2-2-2-2-2-2-|-0-0-0-0-0-0-0-0-|-2-2-2-2-2-2-2-2-|
|-----------------|-0-0-0-0-0-0-0-0-|-----------------|-----------------|

This could be the end of everything

|-----------------|-----------------|-----------------|
|-----------------|-----------------|-----------------|
|-6-6-6-6-6-6-6-6-|-2-2-2-2-2-2-2-2-|-----------------|
|-6-6-6-6-6-6-6-6-|-2-2-2-2-2-2-2-2-|-2-2-2-2-2-2-2-2-|
|-4-4-4-4-4-4-4-4-|-0-0-0-0-0-0-0-0-|-2-2-2-2-2-2-2-2-|
|-----------------|-----------------|-0-0-0-0-0-0-0-0-|

Afraid of a dream of one

|-----------------|-----------------|
|-----------------|-----------------|
|-4-4-4-4-4-4-4-4-|-4-4-4-4-4-4-4-4-|
|-4-4-4-4-4-4-4-4-|-4-4-4-4-4-4-4-4-|
|-2-2-2-2-2-2-2-2-|-2-2-2-2-2-2-2-2-|
|-----------------|-----------------|

Chorus 1

|---------|-------------|---------|-------------|
|---------|-------------|---------|-------------|
|-2-2-2-2-|-------------|-6-6-6-6-|-------------|
|-2-2-2-2-|-4-4-4-4-4-4-|-6-6-6-6-|-2-2-2-2-2-2-|
|-0-0-0-0-|-4-4-4-4-4-4-|-4-4-4-4-|-2-2-2-2-2-2-|
|---------|-2-2-2-2-2-2-|---------|-0-0-0-0-0-0-|

Let's hold these hearts for one another
It's worth all wounds, it must be

|---------|-------------|---------|-------------|
|---------|-------------|---------|-------------|
|---------|-2-2-2-2-2-2-|-6-6-6-6-|-------------|
|-4-4-4-4-|-2-2-2-2-2-2-|-6-6-6-6-|-2-2-2-2-2-2-|
|-4-4-4-4-|-0-0-0-0-0-0-|-4-4-4-4-|-2-2-2-2-2-2-|
|-2-2-2-2-|-------------|---------|-0-0-0-0-0-0-|

If I'm drawn and quartered
Then it's only for you

|---------|-------------|---------|---------|
|---------|-------------|---------|---------|
|-2-2-2-2-|-------------|-6-6-----|-4-4-2-2-|
|-2-2-2-2-|-4-4-4-4-4-4-|-6-6-2-2-|-4-4-2-2-|
|-0-0-0-0-|-4-4-4-4-4-4-|-4-4-2-2-|-2-2-0-0-|
|---------|-2-2-2-2-2-2-|-----0-0-|---------|

Shall we hold that thought now and forever
In all shades of blue

|----------------|-----------------|-----------------|-----------------|
|----------------|---------2-------|-----------------|-------4-5-4-0---|
|----------------|-----4-----4---4-|---------1-------|-----4-----------|
|-4---6---7-6-4-6|---2---2-----2---|-----4-----4---4-|---4-----------4-|
|---4---4--------|-0---------------|---2---2-----2---|-2---------------|
|----------------|-----------------|-0---------------|-----------------|

So why won't you 
I've been waiting for you?

|-----------------|---------------------|
|---------2-------|-------4-5-4-0-------|
|-----4-----4---4-|-----4---------------|
|---2---2-----2---|---4-----------4-2---|
|-0---------------|-2---------------2---|
|-----------------|-----------------0---|

Why won't you go on and run?

Verse 2

|-9-9-9-9-|-7-7-7-7-|-9--9--9--9--|-11-11-11-11-|
|-9-9-9-9-|-9-9-9-9-|-10-10-10-10-|-12-12-12-12-|
|-9-9-9-9-|-9-9-9-9-|-9--9--9--9--|-11-11-11-11-|
|---------|---------|-------------|-------------|
|---------|---------|-------------|-------------|
|---------|---------|-------------|-------------|

Every part of me wants to believe

|-9-9-9-9-|-7-7-7-7-|-9--9--9--9--|-11-11-11-11---|
|-9-9-9-9-|-9-9-9-9-|-10-10-10-10-|-12-12-12-12---|
|-9-9-9-9-|-9-9-9-9-|-9--9--9--9--|-11-11-11-11---|
|---------|---------|-------------|---------------|
|---------|---------|-------------|-------------\0|
|---------|---------|-------------|-------------\0|

There's a darkness we need to feel

|-----------------|-----------------|-----------------|-----------------|
|-----------------|-----------------|-----------------|-----------------|
|-6-6-6-6-6-6-6-6-|-----------------|-2-2-2-2-2-2-2-2-|-4-4-4-4-4-4-4-4-|
|-6-6-6-6-6-6-6-6-|-2-2-2-2-2-2-2-2-|-2-2-2-2-2-2-2-2-|-4-4-4-4-4-4-4-4-|
|-4-4-4-4-4-4-4-4-|-2-2-2-2-2-2-2-2-|-0-0-0-0-0-0-0-0-|-2-2-2-2-2-2-2-2-|
|-----------------|-0-0-0-0-0-0-0-0-|-----------------|-----------------|

For the brightest light to be seen and felt inside

|-----------------|-----------------|-----------------|-----------------|
|-----------------|-----------------|-----------------|-----------------|
|-6-6-6-6-6-6-6-6-|-2-2-2-2-2-2-2-2-|-----------------|-4-4-4-4-4-4-4-4-|
|-6-6-6-6-6-6-6-6-|-2-2-2-2-2-2-2-2-|-2-2-2-2-2-2-2-2-|-4-4-4-4-4-4-4-4-|
|-4-4-4-4-4-4-4-4-|-0-0-0-0-0-0-0-0-|-2-2-2-2-2-2-2-2-|-2-2-2-2-2-2-2-2-|
|-----------------|-----------------|-0-0-0-0-0-0-0-0-|-----------------|

Only because of you

Chorus 2

|---------|-------------|---------|-------------|
|---------|-------------|---------|-------------|
|-2-2-2-2-|-------------|-6-6-6-6-|-------------|
|-2-2-2-2-|-4-4-4-4-4-4-|-6-6-6-6-|-2-2-2-2-2-2-|
|-0-0-0-0-|-4-4-4-4-4-4-|-4-4-4-4-|-2-2-2-2-2-2-|
|---------|-2-2-2-2-2-2-|---------|-0-0-0-0-0-0-|

Let's hold these hearts for one another
It's worth all wounds, it must be

|---------|-------------|---------|-------------|
|---------|-------------|---------|-------------|
|---------|-2-2-2-2-2-2-|-6-6-6-6-|-------------|
|-4-4-4-4-|-2-2-2-2-2-2-|-6-6-6-6-|-2-2-2-2-2-2-|
|-4-4-4-4-|-0-0-0-0-0-0-|-4-4-4-4-|-2-2-2-2-2-2-|
|-2-2-2-2-|-------------|---------|-0-0-0-0-0-0-|

If I'm drawn and quartered
Then it's only for you

|---------|-------------|---------|---------|
|---------|-------------|---------|---------|
|-2-2-2-2-|-------------|-6-6-----|-4-4-2-2-|
|-2-2-2-2-|-4-4-4-4-4-4-|-6-6-2-2-|-4-4-2-2-|
|-0-0-0-0-|-4-4-4-4-4-4-|-4-4-2-2-|-2-2-0-0-|
|---------|-2-2-2-2-2-2-|-----0-0-|---------|

Shall we hold that thought now and forever
In all shades of blue

|----------------|-----------------|-----------------|-----------------|
|----------------|---------2-------|-----------------|-------4-5-4-0---|
|----------------|-----4-----4---4-|---------1-------|-----4-----------|
|-4---6---7-6-4-6|---2---2-----2---|-----4-----4---4-|---4-----------4-|
|---4---4--------|-0---------------|---2---2-----2---|-2---------------|
|----------------|-----------------|-0---------------|-----------------|

So why won't you 
I've been watching too?

|-----------------|-------------------|
|---------2-------|-------4-5-4-0-----|
|-----4-----4---4-|-----4-------------|
|---2---2-----2---|---4-----------4---|
|-0---------------|-2-----------------|
|-----------------|-------------------|

So why won't you go on and run

Bridge 1

|-----------------|-----------------|-----------------|-----------------|
|-----------------|-----------------|-----------------|-----------------|
|-----------------|-4-4-4-4-4-4-4-4-|-----------------|-2-2-2-2-2-2-2-2-|
|-2-2-2-2-2-2-2-2-|-4-4-4-4-4-4-4-4-|-4-4-4-4-4-4-4-4-|-2-2-2-2-2-2-2-2-|
|-2-2-2-2-2-2-2-2-|-2-2-2-2-2-2-2-2-|-4-4-4-4-4-4-4-4-|-0-0-0-0-0-0-0-0-|
|-0-0-0-0-0-0-0-0-|-----------------|-2-2-2-2-2-2-2-2-|-----------------|

|-----------------|-----------------|-----------------|-----------------|
|-----------------|-----------------|-----------------|-----------------|
|-----------------|-4-4-4-4-4-4-4-4-|-----------------|-2-2-2-2-2-2-2-2-|
|-2-2-2-2-2-2-2-2-|-4-4-4-4-4-4-4-4-|-4-4-4-4-4-4-4-4-|-2-2-2-2-2-2-2-2-|
|-2-2-2-2-2-2-2-2-|-2-2-2-2-2-2-2-2-|-4-4-4-4-4-4-4-4-|-0-0-0-0-0-0-0-0-|
|-0-0-0-0-0-0-0-0-|-----------------|-2-2-2-2-2-2-2-2-|-----------------|

With them?
Run away

|-----------------|-----------------|-----------------|-----------------|
|-----------------|-----------------|-----------------|-----------------|
|-----------------|-4-4-4-4-4-4-4-4-|-7-7-7-7-7-7-7-7-|-2-2-2-2-2-2-2-2-|
|-2-2-2-2-2-2-2-2-|-4-4-4-4-4-4-4-4-|-7-7-7-7-7-7-7-7-|-2-2-2-2-2-2-2-2-|
|-2-2-2-2-2-2-2-2-|-2-2-2-2-2-2-2-2-|-5-5-5-5-5-5-5-5-|-0-0-0-0-0-0-0-0-|
|-0-0-0-0-0-0-0-0-|-----------------|-----------------|-----------------|

Go on and run away

|-------------|-------------------|
|-------------|-------------------|
|-------------|-2-2-2-2-2-2-2-2---|
|-4-4-4-4-4-6-|-2-2-2-2-2-2-2-2---|
|-4-4-4-4-4-6-|-0-0-0-0-0-0-0-0-\0|
|-2-2-2-2-2-4-|-----------------\0|

And I'll stay
Yours 

Bridge 2

|-4---4---4---|-5---5---5---|-4---4---4---|-2---2---2---|
|---5---5---5-|---5---5---5-|---5---5---5-|---4---4---4-|
|-------------|-------------|-------------|-------------|
|-------------|-------------|-------------|-------------|
|-------------|-------------|-------------|-------------|
|-------------|-------------|-------------|-------------|

Drawn and quartered

|-4---4---4---|-5---5---5---|-4---4---4---|-2---2---2---|
|---5---5---5-|---5---5---5-|---5---5---5-|---4---4---4-|
|-------------|-------------|-------------|-------------|
|-------------|-------------|-------------|-------------|
|-------------|-------------|-------------|-------------|
|-------------|-------------|-------------|-------------|

Drawn and quartered

|-4---4---4---|-5---5---5---|-4---4---4---|-2---2---2---|
|---5---5---5-|---5---5---5-|---5---5---5-|---4---4---4-|
|-------------|-------------|-------------|-------------|
|-------------|-------------|-------------|-------------|
|-------------|-------------|-------------|-------------|
|-------------|-------------|-------------|-------------|

Drawn and quartered for you

|-4---4---4---|-5---5---5---|-4---4---4---|-2---2---2---|
|---5---5---5-|---5---5---5-|---5---5---5-|---4---4---4-|
|-------------|-------------|-------------|-------------|
|-------------|-------------|-------------|-------------|
|-------------|-------------|-------------|-------------|
|-------------|-------------|-------------|-------------|

It's all I can do

Bridge 3

|---------|-------------|---------|-------------|
|---------|-------------|---------|-------------|
|-2-2-2-2-|-------------|-6-6-6-6-|-------------|
|-2-2-2-2-|-4-4-4-4-4-4-|-6-6-6-6-|-2-2-2-2-2-2-|
|-0-0-0-0-|-4-4-4-4-4-4-|-4-4-4-4-|-2-2-2-2-2-2-|
|---------|-2-2-2-2-2-2-|---------|-0-0-0-0-0-0-|

|---------|-------------|---------|-------------|
|---------|-------------|---------|-------------|
|---------|-2-2-2-2-2-2-|-6-6-6-6-|-------------|
|-4-4-4-4-|-2-2-2-2-2-2-|-6-6-6-6-|-2-2-2-2-2-2-|
|-4-4-4-4-|-0-0-0-0-0-0-|-4-4-4-4-|-2-2-2-2-2-2-|
|-2-2-2-2-|-------------|---------|-0-0-0-0-0-0-|

Chorus 3

|---------|-------------|---------|---------|
|---------|-------------|---------|---------|
|-2-2-2-2-|-------------|-6-6-----|-4-4-2-2-|
|-2-2-2-2-|-4-4-4-4-4-4-|-6-6-2-2-|-4-4-2-2-|
|-0-0-0-0-|-4-4-4-4-4-4-|-4-4-2-2-|-2-2-0-0-|
|---------|-2-2-2-2-2-2-|-----0-0-|---------|

My baby, hold that thought now and forever
In all shades of blue

|----------------|-----------------|-----------------|-----------------|
|----------------|---------2-------|-----------------|-------4-5-4-0---|
|----------------|-----4-----4---4-|---------1-------|-----4-----------|
|-4---6---7-6-4-6|---2---2-----2---|-----4-----4---4-|---4-----------4-|
|---4---4--------|-0---------------|---2---2-----2---|-2---------------|
|----------------|-----------------|-0---------------|-----------------|

Why won't you?
I'll wait for you

|-----------------|-----------------|-----------------|------------------|
|---------2-------|-------4-5-4-0---|---------2-------|-------4-5-4-0----|
|-----4-----4---4-|-----4-----------|-----4-----4---4-|-----4------------|
|---2---2-----2---|---4-----------4-|---2---2-----2---|---4------------4-|
|-0---------------|-2---------------|-0---------------|-2----------------|
|-----------------|-----------------|-----------------|------------------|

So why won't you go on and run?
Why won't you go on and run?

|-----------------|-----------------|
|---------2-------|-------4-5-4-0---|
|-----4-----4---4-|-----4-----------|
|---2---2-----2---|---4-----------4-|
|-0---------------|-2---------------|
|-----------------|-----------------|

So why won't you go on and love

Outro

|---------|-------------|---------|-------------|
|---------|-------------|---------|-------------|
|-2-2-2-2-|-------------|-6-6-6-6-|-------------|
|-2-2-2-2-|-4-4-4-4-4-4-|-6-6-6-6-|-2-2-2-2-2-2-|
|-0-0-0-0-|-4-4-4-4-4-4-|-4-4-4-4-|-2-2-2-2-2-2-|
|---------|-2-2-2-2-2-2-|---------|-0-0-0-0-0-0-|

|---------|-------------|-------|-------------|
|---------|-------------|-------|-------------|
|---------|-2-2-2-2-2-2-|-6-6-6-|-------------|
|-4-4-4-4-|-2-2-2-2-2-2-|-6-6-6-|-2-2-2-2-2-2-|
|-4-4-4-4-|-0-0-0-0-0-0-|-4-4-4-|-2-2-2-2-2-2-|
|-2-2-2-2-|-------------|-------|-0-0-0-0-0-0-|

Baby
Love away

|---------|-------------|---------|-------------|
|---------|-------------|---------|-------------|
|---------|-2-2-2-2-2-2-|-6-6-6-6-|-------------|
|-4-4-4-4-|-2-2-2-2-2-2-|-6-6-6-6-|-2-2-2-2-2-2-|
|-4-4-4-4-|-0-0-0-0-0-0-|-4-4-4-4-|-2-2-2-2-2-2-|
|-2-2-2-2-|-------------|---------|-0-0-0-0-0-0-|

Hold these hearts for one another
Hold these thoughts now and forever we'll be

|---------|-------------|---|---------|
|---------|-------------|---|-7-----6-|
|-2-2-2-2-|-4-4-4-4-4-4-|-6-|---------|
|-2-2-2-2-|-4-4-4-4-4-4-|-6-|---------|
|-0-0-0-0-|-2-2-2-2-2-2-|-4-|---------|
|---------|-------------|---|---------|

Always
Tap to rate this tab
 
# A B C D E F G H I J K L M N O P Q R S T U V W X Y Z