Song name
# A B C D E F G H I J K L M N O P Q R S T U V W X Y Z

Him - Dont Close Your Heart tab

Band: HIM
Song Name: Don't Close Your Heart
Tab by: cisco21c

*As far as I know, no one had tabed this out really. Mainly they did the chords for the
but, what about the other part? Thats when I decided to tab it out..including solo! :D
free to comment fixes or add ons; and I don't know if this is on another site or not. I 
tabbed it out without searching to see if
there was one.

==From Low to High==

Elec. Gtr. tuned:

E A D G B E (Standard)


#INTRO
#Keyboards

|----------------------------------------------------------------|
|----------------------------------------------------------------|
|----------------------------------------------------------------|
|----------------------------------------------------------------|
|----------------------------------------------------------------|
|----------------------------------------------------------------|

#Verse
#Keyboards | Acous. Gtr. ?

|----------------------------------------------------------------|
|----------------------------------------------------------------|
|----------------------------------------------------------------|
|----------------------------------------------------------------|
|----------------------------------------------------------------|
|----------------------------------------------------------------|

#Chorus

E|---------|---------|---------|-----------------|
B|---------|---------|---------|-----------------|
G|---------|---------|---------|-----------------| x2
D|----5----|----7----|----7----|----9-------7----|
A|----5----|----5----|----7----|----9-------7----|
E|----3----|----5----|----5----|----7-------5----|

E|---------|---------|---------|--------|-----------------------|
B|---------|---------|---------|--------|-----------------------|
G|---------|---------|---------|--------|-----------------------|
D|----5----|----7----|----7----|----9---|----7---------5---7----|
A|----5----|----5----|----7----|----9---|----7---2--2--5---7----|
E|----3----|----5----|----5----|----7---|----5---0--0--3---5----|

#Solo

E|-----------------------------|-----------------------|--------------------|
B|-----------------------------|-----------------------|--------------------|
G|-----------------------------|-----------------------|--------------------|x3
D|---7--9--11s--12------11--9--|--------9--7-----------|------------9-------|
A|---x--x---x----x-------x--x--|--------x--x-----------|------------x-------|
E|---5--7---9S--10-------9--7--|-----0--7--5-----------|------------7-------|

E|----------------------------------|------------------|
B|----------------------------------|------------------|
G|----11br------12--11--9-----------|------------------|
D|-----x----11---x---x--x--11--9----|----------7-------|
A|-----9br---x--10---9--7---x--x----|----------x-------|
E|-----------9--------------9--7----|----------5-------|

#Bridge

E|-----------------------------------------------------------------------|
B|-----------------------------------------------------------------------|
G|-----------------------------------------------------------------------|
D|-----------------------------------------------------------------------|
A|-----------------------------------------------------------------------|
E|-----------------------------------------------------------------------|

    Slight P.M. throughout ----------->

E|-----------------|-----------------|-----------------|-----------------|
B|-----------------|-----------------|-----------------|-----------------|
G|-----------------|-----------------|-----------------|-----------------|
D|--7--7--7--7--7--|--7--7--7--7--7--|--7--7--7--7--7--|--7--7--7--7--7--|
A|--7--7--7--7--7--|--7--7--7--7--7--|--7--7--7--7--7--|--7--7--7--7--7--|
E|--5--5--5--5--5--|--5--5--5--5--5--|--5--5--5--5--5--|--5--5--5--5--5--|

E|-----------------|-----------|
B|-----------------|-----------|
G|-----------------|-----------| To Chorus
D|--7--7--7--7--7--|--7--7--7--|
A|--7--7--7--7--7--|--7--7--7--|
E|--5--5--5--5--5--|--5--5--5--|

#Outro

E|---------------|--------------------------|--------------------------|
B|---------------|--------------------------|--------------------------|
G|---------------|--------------------------|--------------------------| x3
D|----------5----|--7--7--7--7--7--7--7--7--|--7--7--7--7--7--7--7--7--|
A|----2--2--5----|--7--7--7--7--7--7--7--7--|--7--7--7--7--7--7--7--7--|
E|----0--0--3----|--5--5--5--5--5--5--5--5--|--5--5--5--5--5--5--5--5--|

E|------------------|
B|------------------|
G|------------------|
D|----------5----7--|
A|----2--2--5----7--|
E|----0--0--3----5--|

======================================================================================

br = Bend-Release
s = slide
Tap to rate this tab
# A B C D E F G H I J K L M N O P Q R S T U V W X Y Z