Song name
# A B C D E F G H I J K L M N O P Q R S T U V W X Y Z

Him - Salt In Our Wounds tab

Help us improve GuitareTab! Take a short survey!
----------------------------------------------------------------------------
			     Salt In Our Wounds Solo - HIM
----------------------------------------------------------------------------
Tabbed by:Zlatan Vincic
Email:vincic@comcast.net

Tuning:Standard

e|-------------------------------------------------------------------------|
B|--------8----------------------------------8--8b-----10---8~~~-----------|
G|--7s9-9----9-9-7h9p7--5h7--5--7--9---7--9---------9--------------9--7----|
D|-------------------------------------------------------------------------|
A|-------------------------------------------------------------------------|
E|-------------------------------------------------------------------------|

e|-------------------------------------------------------------------------|
B|------8-10-----8-10-----8-10----8-10----8-10-----------------------------|
G|--7b---------9--------9-------9-------9----------9--7--7b--5-------------|
D|--------------------------------------------------------------7----------|
A|-------------------------------------------------------------------------|
E|-------------------------------------------------------------------------|

e|-------------------------------------------------------------------------|
B|------------8--10p8p5---13h10p8-13h10p8--13h10p8------------13h10p8h10h13|
G|--7s9--7-9----------------------------------------14h12p10---------------|
D|-------------------------------------------------------------------------|
A|-------------------------------------------------------------------------|
E|-------------------------------------------------------------------------|

e|-------------------------------------------------------------------------|
B|--13b--13b13b13b13b--13b13b13b13b-10--13--15b--13h15p13----13------15b---|
G|--------------------------------------------------------14----14---------|
D|-------------------------------------------------------------------------|
A|-------------------------------------------------------------------------|
E|-------------------------------------------------------------------------|

e|-------------------------------------------------------------------------|
B|--13h15p13------13--15--15b--13h15--13-13-12-13-12-----------------------|
G|------------14-------------------------------------14-12-----------------|
D|---------------------------------------------------------12~-12---12h1412|
A|----------------------------------------------------------------15-------|
E|-------------------------------------------------------------------------|

e|-------------------------------------------------------------------------|
B|-------------------------------------------------------------------------|
G|---------------------12------12-12~~~~-----------------------------------|
D|-----12----------12------12----------------------------------------------|
A|--15----12---15----------------------------------------------------------|
E|-------------------------------------------------------------------------|


| /  slide up
| \  slide down
| h  hammer-on
| p  pull-off
| ~  vibrato
| +  harmonic
| x  Mute note
| b  bend
============================================================================
Related for Salt In Our Wounds tab