Song name
# A B C D E F G H I J K L M N O P Q R S T U V W X Y Z

Him - Lose You Tonight tab

Intro
e-----------------------|
B-----------------------|
G-----------------------| 4x
D-----------------------|
A-----------------------|
E--4-2-4-2-4-2-4-2-4-2-4|

Then

e-----------------------|
B-----------------------|
G-----------------------| 4x
D-----------------------|
A--8-6-8-6-8-6-8-6-8-6-8|
E--6-4-6-4-6-4-6-4-6-4-6|

Chorus

e------------------|
B------------------|
G------------------| 3x
D------------------|
A--4----6----3----4|
E--2----4----1----2|

Then 

e--------|
B--------|
G--------|
D--------|
A--4----6|
E--2----4|

Solo

e------------------------------6--6-8-9-8--------13--13--11--9--11|
B--7--6-4-6-2-----6--6-4-------7-----------9-6---14---------------|
G-------------3----------6/8---8-----------------13---------------|
D-----------------------------------------------------------------|
A-----------------------------------------------------------------|
G-----------------------------------------------------------------|

Order
Intro
Verse(Guitar doesn't play during the verse)
Chorus
Intro
Verse(Guitar doesn't play durind the verse)
Chorus
Solo
Chorus 2x
2nd Half Of Intro Till End

Tap to rate this tab
# A B C D E F G H I J K L M N O P Q R S T U V W X Y Z