Song name
# A B C D E F G H I J K L M N O P Q R S T U V W X Y Z

Him - Sweet Pandemonium tab

Some different options on how to play it here, work out timing and song structure for yourself

Intro version one: can also be used as the parts in the verse


e-------------------------------------------|
B-------------------------------------------|
G-------------------------------------------|
D-------------------------------------------| 
A-------------------------------------------|
E-8-10-10-10-10-8-8-8-8-6-8-8-8-6-3-3-3-3---|


e-----------------------------------------------|
B-----------------------------------------------|
G-----------------------------------------------|
D-----------------------------------------------| 
A-----------------------------------------------|
E--8-10-10-10-10-11-10-8-8-8-6-8-8-8-6-3-3-3-3--|  

Intro version two: Can also be used as parts in verse

|--------------------------------------------------|
|--------------------------------------------------|
|--------------------------------------------------|
|--------------------------------------------------|
|-3--5--5--5--5--3--3--3--1--3--3--3--1------------|
|------------------------------------------3-3-----|

|----------------------------------------------------------|
|----------------------------------------------------------|
|----------------------------------------------------------|
|----------------------------------------------------------|
|-3--5--5--6--5--3--3--3--1--3--3--3-1---------------------|
|----------------------------------------3-3-3-3-3-3-------|

Pre-Chorus

|-----------------------------------|
|-----------------------------------|
|-----------------------------------|
|-2-2-2-2---------------------------|
|-2-2-2-2---------------------------|
|-0-0-0-0---------------------------|
 Palm Mute me!

Chorus: Play this twice (Keyboard plays some phr34ky effects underneath)

|------------------------------------|
|------------------------------------|
|-------5----------------------------|
|-2--3--5--5--2--3--5----------------| 
|-2--3--3--5--2--3--5----------------|
|-0--1-----3--0--1--3----------------|


And before the final chorus play;

|---------------------------------------------|
|---------------------------------------------|
|---------------------------------------------|
|---------------------------------------------|
|---------------------------------------------|
|-5-7-7-8-7-5-5-5-3-5-5-5-3-0-0-0-0-0-~-------|


enjoy it :D
Tap to rate this tab
 
# A B C D E F G H I J K L M N O P Q R S T U V W X Y Z