Song name
# A B C D E F G H I J K L M N O P Q R S T U V W X Y Z

Him - You Are The One tab

#----------------------------------PLEASE NOTE---------------------------------#
#This file is the author's own work and represents their interpretation of the #
#song. You may only use this file for private study, scholarship, or research. #
#------------------------------------------------------------------------------##

 Unfortunately, i accidently made as a tab, not bass...

                           YOU ARE THE ONE (Bassline)
                              As recorded by H.I.M.
          (From the 2001 Album DEEP SHADOWS AND BRILLIANT HIGHLIGHTS )

Words by Ville Valo

Music by H.I.M.
Arranged by H.I.M.
Transcribed by vitaha_z

Gtr I (D A D G) - 'Untitled'
Gtr II (E A D G B E) - 'Untitled'

 Intro
  Q=124
 4/4
  Gtr I
  Wx4
|--------|
|--------|
|--------|
|--------|


  S S E S S E Q  Q     +E  Q  Q  +Q.
|--------------------|-----------------|
|-----0-2-0----------|-----------------|
|-0-2-------2--------|-----------------|
|-------------2--2\--|-(2)-2--0--(0)---|


  S S E S S E Q  Q    E Q  Q  +Q.     S S E S S E Q  Q
|-------------------|---------------|--------------------||
|-----0-2-0---------|---------------|-----0-2-0----------||
|-0-2-------2-------|---------------|-0-2-------2--------||
|-------------5--5--|---5--7--(7)---|-------------2--2\--||


   Verse
    $
    E E E Q.   E E   H    Q  E E   E E E Q.   E E
||-----------------|-------------|----------------|
||o----------------|-------------|----------------|
||o----------------|-------------|----------------|
||----2---0----0---|------5--5---|---9---7----7---|


 1.              2.
  H    Q  Q       S S E S S E Q  Q
|--------------||--------------------|
|-------------o||-----0-2-0----------|
|-------------o||-0-2-------2--------|
|------2--2\---||-------------2--2\--|


  +E  Q  Q  +Q.     S S E S S E Q  Q    E Q  Q  +Q.     S S E S S E Q  Q
|-----------------|-------------------|---------------|--------------------|
|-----------------|-----0-2-0---------|---------------|-----0-2-0----------|
|-----7--5--(5)---|-0-2-------2-------|---------------|-0-2-------2--------|
|-(2)-------------|-------------5--5--|---5--7--(7)---|-------------2--2\--|


  +E  Q  Q  +Q.     S S E S S E Q  Q    E Q  Q  +Q.     S S E S S E Q  Q
|-----------------|-------------------|---------------|-------------------||
|-----------------|-----0-2-0---------|---------------|-----0-2-0---------||
|-----7--5--(5)---|-0-2-------2-------|---------------|-0-2-------2-3--3--||
|-(2)-------------|-------------5--5--|---5--7--(7)---|-------------------||


   Chorus
                                                                    To Coda
    +E  E E Q  E Q    +E  E E Q  E Q    +E  E E Q  E Q    S S E S S E Q  Q    3x
||------------------|-----------------|-----------------|---------------------||
||o-----------------|-----------------|-----------------|-----0-2-0----------o||
||o-(3)-3-3---------|-----------------|-----------------|-0-2-------2-3--3---o||
||----------7--7-7--|-(7)-7-5-2--2-2--|-(2)-2-2-0--0-0--|---------------------||


  +E  E E Q  E Q    +E  E E E Q  Q     +E  Q  Q  +Q.     S S E S S E Q  Q
|-----------------|------------------|-----------------|---------------------|
|-----------------|------------------|-----------------|-----0-2-0-----------|
|-(3)-3-3---------|------------------|-----------------|-0-2-------2---------|
|---------7--7-7--|-(7)-7-5-7-2--2\--|-(2)-2--0--(0)---|-------------5--5----|


                                         Guitar Solo
                     D.S. al Coda         &
  E Q  Q  +Q.     S S E S S E Q  +Q       E E E Q  E Q    +E  E E Q   E Q
|---------------|----------------------||---------------|--------------------|
|---------------|-----0-2-0------------||---------------|--------------------|
|---------------|-0-2-------2----------||-3-3-3---------|--------------------|
|---5--7--(7)---|-------------2--(2)\--||-------7--7-7--|-(7)-7-5-2---2-2----|
|
|                                                         Gtr II
| W               W                       W                H        Q   Q
|---------------|----------------------||---------------|-----------0---0----|
|---------------|----------------------||---------------|--------------------|
|---------------|----------------------||---------------|--------------------|
|---------------|----------------------||---------------|--------------------|
|---------------|----------------------||---------------|--------------------|
|---------------|----------------------||---------------|--------------------|


                                    1.
    E E E Q.    E E   H     Q  E E   E E E Q.    E E
||------------------|--------------|-----------------|
||o-----------------|--------------|-----------------|
||o-----------------|--------------|-----------------|
||----2---0-----0---|-------5--5---|---9---7-----7---|
|
|   Q   Q    Q  Q     Q  Q  Q  Q     Q   Q    Q  Q
||--0---0----0--0---|-0--0--0--0---|-0---0----0--0---|
||o-----------------|--------------|-----------------|
||------------------|--------------|-----------------|
||------------------|--------------|-----------------|
||o-----------------|--------------|-----------------|
||------------------|--------------|-----------------|


                  2.
  H     Q  Q       E E E Q   E E E
|---------------||-------------------|
|--------------o||-------------------|
|--------------o||-------------5-7---|
|-------2--2\---||---9---7---9-------|
|
| Q  Q  Q  Q       Q   Q   Q   Q
|-0--0--0--0----||-0---0---0---------|
|--------------o||-------------------|
|---------------||-------------------|
|---------------||-------------------|
|--------------o||-------------------|
|---------------||-------------------|


                   Out-Chorus
  E E E E Q  Q      +E  E E Q  E Q    +E  E E Q  E Q
|---------------||------------------|-----------------|
|-5-------------||o-----------------|-----------------|
|---7-5---3--3--||o-(3)-3-3---------|-----------------|
|-------7-------||----------7--7-7--|-(7)-7-5-2--2-2--|


  +E  E E Q  E Q    S S E S S E Q  Q    3x
|-----------------|---------------------||
|-----------------|-----0-2-0----------o||
|-----------------|-0-2-------2-3--3---o||
|-(2)-2-2-0--0-0--|---------------------||


                    Outro
  +E  E E Q  E Q     +E  E E E H      +W           +W           +W
|-----------------||----------------|------------|------------|--------|
|-----------------||----------------|------------|------------|--------|
|-(3)-3-3---------||----------------|------------|------------|--------|
|---------7--7-7--||-(7)-7-5-7-2----|-(2)--------|-(2)--------|-(2)----|


                                   H.=H
                >
  +W           +W           +H     +H       +W           +W           W
|------------|------------|---------------|------------|------------|------*|
|------------|------------|---------------|------------|------------|------*|
|------------|------------|---------------|------------|------------|------*|
|-(2)--------|-(2)--------|-(2)----(2)----|-(2)--------|-(2)--------|------*|


Duration Legend
---------------
W - whole; H - half; Q - quarter; E - 8th; S - 16th; T - 32nd; X - 64th; a - acciaccatura
+ - note tied to previous; . - note dotted; .. - note double dotted
Uncapitalized letters represent notes that are staccato (1/2 duration)
Irregular groupings are notated above the duration line
Duration letters will always appear directly above the note/fret number it represents the
duration for.  Duration letters with no fret number below them represent rests.  Multi-
bar rests are notated in the form Wxn, where n is the number of bars to rest for.  Low
melody durations appear below the staff

Tablature Legend
----------------
 h   - hammer-on
 p   - pull-off
 b   - bend
 pb  - pre-bend
 r   - bend release (if no number after the r, then release immediately)
 /\  - slide into or out of (from/to "nowhere")
 s   - legato slide
 S   - shift slide
  - natural harmonic
[n]  - artificial harmonic
n(n) - tapped harmonic
 ~   - vibrato
 tr  - trill
 T   - tap
 TP  - trem. picking
 PM  - palm muting
\n/  - tremolo bar dip; n = amount to dip
 \n  - tremolo bar down
 n/  - tremolo bar up
/n\  - tremolo bar inverted dip
 =   - hold bend; also acts as connecting device for hammers/pulls
 <>  - volume swell (louder/softer)
 x   - on rhythm slash represents muted slash
 o   - on rhythm slash represents single note slash

Misc Legend
-----------
 |  - bar
||  - double bar
||o - repeat start
o|| - repeat end
*|  - double bar (ending)
 :  - bar (freetime)
 $  - Segno
 &  - Coda
Tempo markers -  = BPM(8/16=s8/s16), where s8 = swing 8ths, s16 = swing 16ths
Tap to rate this tab
# A B C D E F G H I J K L M N O P Q R S T U V W X Y Z