Song name
# A B C D E F G H I J K L M N O P Q R S T U V W X Y Z

Him - The Path tab

This intro is played on the piano in the song, but
I've found a way to play it with the guitar to. I hope it's
right(this is my first tab).


e-------5-----------5-------------------------------|
B-----6---6-------6---6---5-----5-3-----------------|
G---5-------5---5-------5-----5----5-4-----4-2-0----|
D-7-----------7-------------5------------5----------|
A--------------------------------------5------------|
E---------------------------------------------------|

e-------5-----------5-------------------------------|
B-----6---6-------6---6---5-----5-3-----------------|
G---5-------5---5-------5-----5----5-4-----4-2-0----|
D-7-----------7-------------5------------5----------|
A--------------------------------------5------------|
E---------------------------------------------------|

e-------5-----------5-------------------------------|
B-----6---6-------6---6---5-----5-3-----------------|
G---5-------5---5-------5-----5----5-4-----4-2-0----|
D-7-----------7-------------5------------5----------|
A--------------------------------------5------------|
E---------------------------------------------------|

e-------5-----7-----8-----7-----5-----3-1-----------|
B-----6---6-----6-----6-----6-----6-----------------|
G---5-------5-----7-----7-----7-----7---------------|
D-0-------------------------------------------------|
A---------------------------------------------------|
E---------------------------------------------------|

Tap to rate this tab
# A B C D E F G H I J K L M N O P Q R S T U V W X Y Z