Song name
# A B C D E F G H I J K L M N O P Q R S T U V W X Y Z

Him - This Fortress Of Tears tab

Hy guys, this my version of the solo of "this fortress of tears" by HIM.
Enjoy and have fun!!!!!!!!!

|------------------------------------------------2--2----------------------------------|
|------------------------------------------------5b-5b-2-3-3b-3b3b3b3b3-2--------------|
|-----2-4-4b-2-4b-2---------------4b4-2-4b-2-------------------------------4-----------|
|-------------------4--------2-4-------------4-----------------------------------------|
|------------------------2-4-----------------------------------------------------------|
|--------------------------------------------------------------------------------------|

|--------------------------------------------------------------------------------------|
|---------------------------------14--14-----------------------------------------------|
|---2-4b-2------------------------16b-16b-14-16--------14-14-16b-14-16b-14-16-16b16-14-|
|----------4---4-2------------------------------14-16----------------------------------|
|------------------4-2-----------------------------------------------------------------|
|-----------------------5-3-2----------------------------------------------------------|

|---14--14--14-17-14----14-------------------------------------------------------------|
|---17b-17b----------17----17-14-17-14----14-------------------------------------------|
|--------------------------------------16---16-14--------------------------------------|
|-------------------------------------------------16-14--------------------------------|
|-------------------------------------------------------16-14-12-9-------12-14b-12-----|
|------------------------------------------------------------------12-14-----------12--|
Tap to rate this tab
# A B C D E F G H I J K L M N O P Q R S T U V W X Y Z