Song name
# A B C D E F G H I J K L M N O P Q R S T U V W X Y Z

Him - Its All Tears tab

HIM - It's All Tears Unplugged


hi all, this is my version of It's All Tears by HIM. I have seen other tabs for
this song and I think there are some corrections to be made...


Intro: this is the intro from the unplugged version

e|-----------------------------------|---------------------------|
b|-----------------------------------|---------------------------|
g|---/8--7--5--5h7--5--3--/5--3--2--3|-----3--3--3h5--3--2--0--2-|
d|-----------------------------------|---------------------------| 
a|-----------------------------------|---------------------------|
E|-----------------------------------|---------------------------|

repeat this 2x and then: 


e|---/8--7--5--5h7--5--3--/5--3--2--3|-----3--3--3h5--3--2--0--2-|
b|-----------------------------------|---------------------------|
g|-----------------------------------|---------------------------|
d|-----------------------------------|---------------------------| 
a|-----------------------------------|---------------------------|
E|-----------------------------------|---------------------------|

repeat that 2x as well and go to verse 1


verse1:

Em           Em  G             D                         Em
  Open your arms   and let me show you what love can be like
Em           Em  G              D                       Em
  It's all tears   and it will be 'til the end of your time
Em             Em     G                  D                Em
  Come closer my love,  will you let me tear your heart apart                                  
Em                 Em  G       D            Em
  Now all hope is gone   so drown in this love


Chorus:
originally in the unplugged version it is played like this:

e|-----------------------------------|---------------------------|
b|-----------------------------------|---------------------------|
g|---/8--7--5--5h7--5--3--/5--3--2--3|-----3--3--3h5--3--2--0--2-|
d|-----------------------------------|---------------------------| 
a|-----------------------------------|---------------------------|
E|-----------------------------------|---------------------------|

e|---/8--7--5--5h7--5--3--/5--3--2--3|-----3--3--3h5--3--2--0--2-|
b|-----------------------------------|---------------------------|
g|-----------------------------------|---------------------------|
d|-----------------------------------|---------------------------| 
a|-----------------------------------|---------------------------|
E|-----------------------------------|---------------------------|

but it can be played like that as well:

Em                Em                   G        D              Em
  I'm waiting for you to drown in my love (so open your arms)
Em                 Em               G          D                 Em
  I'm waiting for you to open your arms (and drown in this love)
Em                 Em                 G        D              Em
  I'm waiting for you to drown in my love (so open your arms)
Em                 Em               G          D                 Em
  I'm waiting for you to open your arms (and drown in this love)


Verse 2:
Em        Em       G              D                     Em
   So my love your   laughter is finally turning into tears
Em                       Em   G             D              Em
  And you're begging for more   though the end is getting near
Em           Em       G                  D                   Em
  Come closer my love,  I'll violate you in the most sensual way
Em   Em  G       D            Em
  Until    you drown in this love


Chorus: again it can be played both ways:

Em                Em                   G        D              Em
  I'm waiting for you to drown in my love (so open your arms)
Em                 Em               G          D                 Em
  I'm waiting for you to open your arms (and drown in this love)
Em                 Em                 G        D              Em
  I'm waiting for you to drown in my love (so open your arms)
Em                 Em               G          D                 Em
  I'm waiting for you to open your arms (and drown in this love)

or:

e|-----------------------------------|---------------------------|
b|-----------------------------------|---------------------------|
g|---/8--7--5--5h7--5--3--/5--3--2--3|-----3--3--3h5--3--2--0--2-|
d|-----------------------------------|---------------------------| 
a|-----------------------------------|---------------------------|
E|-----------------------------------|---------------------------|

e|---/8--7--5--5h7--5--3--/5--3--2--3|-----3--3--3h5--3--2--0--2-|
b|-----------------------------------|---------------------------|
g|-----------------------------------|---------------------------|
d|-----------------------------------|---------------------------| 
a|-----------------------------------|---------------------------|
E|-----------------------------------|---------------------------|

Solo: I'm still working on the solo but I'll tab it as soon as I figure it out ;)

Chorus again 2x

and end on

e|-----------------------------------|---------------------------|
b|-----------------------------------|---------------------------|
g|---/8--7--5--5h7--5--3--/5--3--2--3|-----3--3--3h5--3--2--0--2-|
d|-----------------------------------|---------------------------| 
a|-----------------------------------|---------------------------|
E|-----------------------------------|---------------------------|

pick slow at the end...


well that's it hope you like it if there are any questions my email is
georgi.christov89@gmail.com enjoy...
Tap to rate this tab
 
# A B C D E F G H I J K L M N O P Q R S T U V W X Y Z