Song name
# A B C D E F G H I J K L M N O P Q R S T U V W X Y Z

Him - In Love And Lonely tab

----------------------------------------------------------------------------
			     In Love & Lonely - HIM
----------------------------------------------------------------------------
Tabbed by: fezaan66
Email: fezaansayed2003@hotmail.com

This is 99.9% correct. BUT when going from e to b, listen to the song for the small 
on/pull off. It is easy.
Please Rate. I know this solo is correct. email and say what u think. The intros to the 
tabs are correct but the solo there is messed up. Those intros sound perfect with this solo.

e|--------------6-4---------------------------------------------------------|
B|------------------6-4-----4--6--4-----------------------------------------|
G|---6---6-5-------------6--------------------------------------------------|
D|-----8--------------------------------------------------------------------|
A|--------------------------------------------------------------------------|
E|--------------------------------------------------------------------------|

e|---9-8-8-4s8--9-8-8-4s8----------------------------------------------------|
B|---------------------------------------------------------------------------|
G|----------------------------6---10---6--8----------------------------------|
D|---------------------------------------------------------------------------|
A|---------------------------------------------------------------------------|
E|---------------------------------------------------------------------------|

e|-6666666666666-6--4-------------------------------------------------------|
B|---------------------6--4-------4-6-4-------------------------------------|
G|----------------------------6---------------------------------------------|
D|--------------------------------------------------------------------------|
A|--------------------------------------------------------------------------|
E|--------------------------------------------------------------------------|
Tap to rate this tab
 
# A B C D E F G H I J K L M N O P Q R S T U V W X Y Z