Guitaretab - guitar tabs
Song name
# A B C D E F G H I J K L M N O P Q R S T U V W X Y Z

Him - Beautiful Acoustic tab

HIM- Beautiful (Acoustic)
Deep Shadows and Brilliant Highlights
Dropped D Flat
tabbed by: darce_9

I
|-------------------------------------------------------------------|
|---12-10----10-----------------------------12-10----10-------------|
|-9-------12-------11-12----11-12-11-9----9-------12-------11-12-9--|
|---------------12-------12------------12---------------12----------|
|-------------------------------------------------------------------|
|-------------------------------------------------------------------|
[ Tab from: http://www.guitaretab.com/h/him/58742.html ]
II
|------------------------|
|------------------------|
|------------------7-----|
|-7--10--0--9--10--7--2--|
|-7--10--0--9--10--5--2--|
|-7--10--0--9--10-----2--|

III
|------------------------|
|------------------------|
|-----------7---------7--|
|-2--2--10--7--2--10--7--|
|-2--2--10--5--2--10--5--|
|-2--2--10-----2--10-----|

IV
|----------------------------------------------------------------|
|---12-10----10-----------------------------15-13-12-------------|
|-9-------12-------11-12----11-12-11-9----9-------------12-14-9--|
|---------------12-------12------------12------------14----------|
|----------------------------------------------------------------|
|----------------------------------------------------------------|

order
I over II  x1
III        x1
I over II  x1
III        x1
Pause
I over II  x2
IV over II x1
Related for Beautiful Acoustic tab
×
Beautiful Acoustic