Guitaretab - guitar tabs
Song name
# A B C D E F G H I J K L M N O P Q R S T U V W X Y Z

Him - Razorblade Kiss Live tab

Artist: HIM
Title: Razorblade Kiss (Live)
Album: Razorblade Romance (Not Live)
Tabber: VilleHValo666 

This is a big thing for me cause this is my first tab ever so it's maybe wrong
Tabbed The 5 May 2005 in Denmark By Mat A
Starting 18:38 Danish Time

  Intro
e|----------------|-----------------|-----------------|-----------------|
B|----------------|-----------------|-----------------|-----------------|
G|----------------|-----------------|-----------------|-----------------|
D|----------------|-----------------|-----------------|-----------------|
A|--5-5---5-7-5---|--5-5---5-7-5----|--5-5---5-7-5----|--5-5---5-7-5----|
E|------8-------8-|------8-------8--|------8-------8--|------8-------8--|

18:45 Pause
Starting again 15 may 8:44 Danish time in the morning

e||--------------------------|
B||--------------------------|
G||*-------------------------|
D||*-------------------------|
A||--------------------------|
E||---7----9--9--7--9--9--9--|

                                                       
|------------------------|------------------------------|
|------------------------|------------------------------|
|------------------------|------------------------------|
|------------------------|------------------------------|
|------------------------|--9----11--11--9--11--11--11--|
|--7----9--9--7--9--9----|------------------------------|

					    
|-----------------------------|
|-----------------------------|
|----------------------------*|
|----------------------------*|
|--9----11--11--9--11--11-----|
|-----------------------------|

Verse1
KEY RITM         8x
|--------------------||
|--------------------||
|*------------------*||
|*------------------*||
|--------------------||
|--------------------||

  B5   C#5   
|---------------------------|---------------------------|
|---------------------------|---------------------------|
|---------------------------|---------------------------|
|---------------------------|---------------------------|
|--9----11--11------11--11--|--9----11--11------11--11--|
|--7----9---9-------9---9---|--7----9---9-------9---9---|


  E5                                                 
|----------------------------|-----------------------|
|----------------------------|-----------------------|
|----------------------------|-----------------------|
|----------------------------|-----------------------|
|--14----14--14------14--14--|--9----9--9------9--9--|
|--12----12--12------12--12--|--7----7--7------7--7--|


  B5   C#5                                                                     
|-----------------------|-----------------------|-----------------|
|-----------------------|-----------------------|-----------------|
|-----------------------|-----------------------|-----------------|
|-----------------------|-----------------------|-----------------|
|--9----11--11--11--11--|--9----11--11--11--11--|--14----19\------|
|--7----9---9---9---9---|--7----9---9---9---9---|--12----19\------|

                                                           
|------------|
|------------|
|------------|
|------------|
|--9---15\---|
|--7---15\---|
 
08:49

e||--------------------------|
B||--------------------------|
G||*-------------------------|
D||*-------------------------|
A||--------------------------|
E||---7----9--9--7--9--9--9--|

                                                       
|------------------------|------------------------------|
|------------------------|------------------------------|
|------------------------|------------------------------|
|------------------------|------------------------------|
|------------------------|--9----11--11--9--11--11--11--|
|--7----9--9--7--9--9----|------------------------------|

					    
|-----------------------------|
|-----------------------------|
|----------------------------*|
|----------------------------*|
|--9----11--11--9--11--11-----|
|-----------------------------|

08:54

   Verse2
   KEY RITM
|---------------------------|--------------------------|
|---------------------------|--------------------------|
|*--------------------------|--------------------------|
|*--6--6--6--6--6--6--6--6--|--6--6--6--6--6--6--6--6--|
|---4--4--4--4--4--4--4--4--|--4--4--4--4--4--4--4--4--|
|---------------------------|--------------------------|
  |--------------------------------------------------|
 
                                                       
|--------------------------|---------------------------||
|--------------------------|---------------------------||
|--------------------------|--------------------------*||
|--9--9--9--9--9--9--9--9--|--------------------------*||
|--7--7--7--7--7--7--7--7--|--9--9--9--9--9--9--9--9---||
|--------------------------|--7--7--7--7--7--7--7--7---||
  |--------------------------------------------------|
                            
     B5   C#5                                              
|---------------------------|---------------------------|
|---------------------------|---------------------------|
|---------------------------|---------------------------|
|---------------------------|---------------------------|
|--9----11--11------11--11--|--9----11--11------11--11--|
|--7----9---9-------9---9---|--7----9---9-------9---9---|


  E5                                                 
|----------------------------|-----------------------|
|----------------------------|-----------------------|
|----------------------------|-----------------------|
|----------------------------|-----------------------|
|--14----14--14------14--14--|--9----9--9------9--9--|
|--12----12--12------12--12--|--7----7--7------7--7--|


  B5   C#5                                              
|---------------------------|---------------------------|
|---------------------------|---------------------------|
|---------------------------|---------------------------|
|---------------------------|---------------------------|
|--9----11--11------11--11--|--9----11--11------11--11--|
|--7----9---9-------9---9---|--7----9---9-------9---9---|

                                                        
|------------------------------|------------------------|
|------------------------------|------------------------|
|------------------------------|------------------------|
|------------------------------|------------------------|
|--14------14--14--14--14--14--|--9------9--9--9--9--9--|
|--12------12--12--12--12--12--|--7------7--7--7--7--7--|


|--------------------|-------19\---|
|--------------------|-------19\---|
|--------------------|-------19\---|
|--------------------|-------19\---|
|--7--7--7--7--7--7--|--9----19\---|
|--5--5--5--5--5--5--|--7----19\---|

08:55

Chorus KEY  

|--------------------------|
|--------------------------|
|*-------------------------|
|*-------------------------|
|--------------------------|
|---7----9--9--7--9--9--9--|


|------------------------|------------------------------|
|------------------------|------------------------------|
|------------------------|------------------------------|
|------------------------|------------------------------|
|------------------------|--9----11--11--9--11--11--11--|
|--7----9--9--7--9--9----|------------------------------|

                             4x                           
|-----------------------------||--------------------------|
|-----------------------------||--------------------------|
|----------------------------*||*--6----6--6--6--8--8--8--|
|----------------------------*||*-------------------------|
|--9----11--11--9--11--11-----||--------------------------|
|-----------------------------||--------------------------|

                                                          
|-----------------------------||--------------------------|
|-----------------------------||--------------------------|
|--9----9--9--9--11--11--11--*||*--8----8--8--8--9--9--9--|
|----------------------------*||*-------------------------|
|-----------------------------||--------------------------|
|-----------------------------||--------------------------|
[ Tab from: http://www.guitaretab.com/h/him/59671.html ]
                                   
|---------------------------------||
|---------------------------------||
|--11----11--11--11--13--13--13--*||
|--------------------------------*||
|---------------------------------||
|---------------------------------||

08:57

   SOLO                                                                                    
|-----------------------------|----------------------------|
|-----------------------------|----------------------------|
|*----------------------------|----------------------------|
|*----------------------------|----------------------------|
|---9----11--11--9--11--11----|--9----11--11--9--11--11----|
|---7----9---9---7--9---9-----|--7----9---9---7--9---9-----|

                                                    4x
|-------------------------|--------------------------||
|-------------------------|--------------------------||
|-------------------------|-------------------------*||
|--9----9--9--9--9--9--9--|-------------------------*||
|--7----7--7--7--7--7--7--|--9----9--9--9--9--9--9---||
|-------------------------|--7----7--7--7--7--7--7---||

 
   Bridge                                                        
|-------------------------|--0----------2----------|
|---2----------4----------|-----4----------4-------|
|*-----2----------2-------|--------4----------4----|
|*--------2----------2----|------------------------|
|-------------------------|------------------------|
|-------------------------|------------------------|


                                         3x  RITM (after 2 times)                     
|-4--------------------|-2------0---------||---------------------|
|----5-----4h5p4-------|---4-------4------||---2--------4--------|
|-------6---------6----|------4-------4--*||*-----2--------2-----|
|--------------------6-|-----------------*||*--------2--------2--|
|----------------------|------------------||---------------------|
|----------------------|------------------||---------------------|

                         4x
|--0----------2-----------||
|-----4----------4--------||
|--------4----------4----*||
|------------------------*||
|-------------------------||
|-------------------------||

   Chorus End
   KEY                                                     
|--------------------------|------------------------|
|--------------------------|------------------------|
|*-------------------------|------------------------|
|*-------------------------|------------------------|
|--------------------------|------------------------|
|---7----9--9--7--9--9--9--|--7----9--9--7--9--9----|


                                                            4x
|------------------------------|-----------------------------||
|------------------------------|-----------------------------||
|------------------------------|----------------------------*||
|------------------------------|----------------------------*||
|--9----11--11--9--11--11--11--|--9----11--11--9--11--11-----||
|------------------------------|-----------------------------||


                                3x                               
|--------------------------------||-----------------------------||
|--------------------------------||-----------------------------||
|*------------------------------*||-----------------------------||
|*------------------------------*||-----------------------------||
|---9----11--11--9--11--11--11---||--9----11--11--9--11--11--9--||
|---7----9---9---7--9---9---9----||--7----9---9---7--9---9---7--||
SOLO
                                                         
|--------------------------|---------------------------|
|--------------------------|---------------------------|
|--------------------------|---------------------------|
|--------------------------|-----6----9--9--6-6\9/-6---|
|-------------7--7-7~7-----|--7----------------------7\|
|--19\-----9------------9--|---------------------------|

                                                      
|--------------------------|--------------------------|
|--------------------------|--------------------------|
|--------------------------|--------------------------|
|-----6----9--9--6-6\9/-6--|-------------------9~-----|
|--9-----------------------|--7\-9~-------9/11----11--|
|--------------------------|--------------------------|

                                                                              
|-------------------------|---------|----------------------------|
|-------------------------|---------|--9-9--9-9--9-9--9-9--9-9---|
|-----9----6~-------------|--9--6~--|----------------------------|
|--9---------------9------|---------|----------------------------|
|-------------9/11----11--|---------|----------------------------|
|-------------------------|---------|----------------------------|

                                                                           
|-------------|------------------------|--7r---------------------|
|--7h9p7------|--9r------7-------------|----------9-----7--------|
|--------9-8~-|-------6-----6--9--6----|-------6-----6-----9--8--|
|-------------|------------------------|-------------------------|
|-------------|------------------------|-------------------------|
|-------------|------------------------|-------------------------|

                                                   
|--------------------------------------------------|
|--------------------------------------------------|
|--9--11h9p11h9p11h9p11h9p11h9p11h9p11h9p11h9p11h9-|
|--------------------------------------------------|
|--------------------------------------------------|
|--------------------------------------------------|

                                                             
|------------------------------------------------------------|
|------------------------------------------------------------|
|--11--13h11p13h11p13h11p13h11p13h11p13h11p13h11p13h11p13h11-|
|------------------------------------------------------------|
|------------------------------------------------------------|
|------------------------------------------------------------|

                                         
|----------------------------------------|
|--14--14-14-14--14-14-14--14-14-14--16--|
|----------------------------------------|
|----------------------------------------|
|----------------------------------------|
|----------------------------------------|

                                         
|----------------------------------------|
|--16--16-16-16--16-16-16--16-16-16--17--|
|----------------------------------------|
|----------------------------------------|
|----------------------------------------|
|----------------------------------------|

                                                             
|----------------------------------------|------------------||
|--17--17-17-17--17-17-17--17-17-17--19~-|------------------||
|----------------------------------------|------------------||
|----------------------------------------|------------------||
|----------------------------------------|------------------||
|----------------------------------------|------------------||RITM


08:58

e||--------------------------|--------------------------|
B||--------------------------|--------------------------|
G||--------------------------|--------------------------|
D||--7--7--7--7--7--7--7--7--|--9--9--9--9--9--9--9--9--|
A||--7--7--7--7--7--7--7--7--|--9--9--9--9--9--9--9--9--|
E||--5--5--5--5--5--5--5--5--|--7--7--7--7--7--7--7--7--|

                                                             
|--------------------------|----------------------------------|
|--------------------------|----------------------------------|
|--------------------------|----------------------------------|
|--7--7--7--7--7--7--7--7--|--9-9-9-9-9-9-9-9-9-9-9-9-9-9-9-9-|
|--7--7--7--7--7--7--7--7--|--9-9-9-9-9-9-9-9-9-9-9-9-9-9-9-9-|
|--5--5--5--5--5--5--5--5--|--7-7-7-7-7-7-7-7-7-7-7-7-7-7-7-7-|KEY


08:59

Outro

e||----------------------------|
B||----------------------------|
G||----------------------------|
D||---------4------------------|
A||--5-4-0--2------------------|
E||----------------------------|

09:01

Finish I think it's right cause it's not me who tabed the whole song i'm not that good i
only tabed the "Intro" and "Outro" so i cuted something out from an other version of
"Razoblade Kiss" it isn't that hard to play

Questions or Corections Matty1221@hotmail.com
HIM Forever 666
Related for Razorblade Kiss Live tab