Guitaretab - guitar tabs
Song name
# A B C D E F G H I J K L M N O P Q R S T U V W X Y Z

Him - Death Is In Love With Us tab

Artist:HIM                     |
Song:Death Is In Love With Us  |
Album:Razorblade Romance       |
_______________________________|

[Standard Tuning]

~Intro~


|---------------------|--------------------|--------------------|
|---------------------|--------------------|--------------------|
|--7----6----4-----7--|----6------4-----7--|----6----4----------|
|---------------7-----|--------------7-----|--------------7--6--|
|---------------------|--------------------|--------------------|
|---------------------|--------------------|--------------------|

|---------------------|--------------------|--------------------|
|---------------------|--------------------|--------------------|
|---------------------|--4--6~---4---------|--------------------|
|----7~-----4----7----|---------------7-6--|-4----2-----4/6\--4-|
|---------------------|--------------------|--------------------|
|---------------------|--------------------|--------------------|


Verse

Play every Powerchord a few times

|-----------------------|
|-----------------------|
|-----------------------|
|-4-2-4-2-7-9-7-6\4/6\4-|
|-4-2-4-2-7-9-7-6\4/6\4-|
|-2-0-2-0-5-7-5-4\2/4\2-|

|-----------------|
|-----------------|
|-----------------|
|-4-2-4-2-7-9-7-6-|
|-4-2-4-2-7-9-7-6-|
|-2-0-2-0-5-7-5-4-|


Chorus
[ Tab from: http://www.guitaretab.com/h/him/59700.html ]
|-----------------------------------------------------------------------|
|-----------------------------------------------------------------------|
|-----------------------------------------------------------------------|
|-----------------------------------------------------------------------|
|-(4)--5--4--2-0--5-4--2-0--5-4-2-0--------0-2-4-2-0--------------------|
|-----------------------------------4-5--2-----------4-2-0-2-4-2--2-4-0-|

-------------------------|
-------------------------|
-------------------------|
-------------------------|
---0-2-4-2-0-------------|
-2-----------4-2-0--2-4-2|


-Verse-
-Chorus-
Bridge:

Bass tabbed for guitar :

|-------------------------------------------------------------------------|
|-------------------------------------------------------------------------|
|-------------------------------------------------------------------------|
|-------------------------------------------------------------------------|
|-------------------------------------------------------------------------|
|-22222222-00000000-22222222-000000000-22222222-00000000-22222222-00000000|

Guitar : (1.53min.)
heavy distortion

|----------------------|
|----------------------|  4x
|----------------------|
|-7-4-44444-2-4-2-22222|
|-7-4-44444-2-4-2-22222|
|-5-2-22222-0-2-0-00000|
Related for Death Is In Love With Us tab
×
Best way to learn
"Death Is In Love With Us"