Song name
# A B C D E F G H I J K L M N O P Q R S T U V W X Y Z

Him - Funeral Of Hearts Acoustic tab

E||-----------------------|--0----------------|--0------0----0--0--0--|
B||-----------------------|--1----------------|--0------0----0--0--0--|
G||-----------0-----------|--0----------------|--0------0----0--0--0--|
D||--------2-------2------|--2----------------|--2------2----2--x--x--|
A||-----2-----------------|-------------------|--2--------------x--x--|
E||--0--------------------|-------------------|--0--------------------|


  D                       G                       Am                    
--2------2----2--2--2--|--3------3----3--3--3--|--0------0----0--0--0--|
--3------3----3--x--3--|--0------0----0--0--0--|--1------1----1--1--1--|
--2------2----2--x--2--|--0------0----0--0--0--|--2------2----2--2--2--|
--0--------------------|--0------0----x--x--x--|--2------2----x-----x--|
--0--------------------|--2--------------------|--0--------------------|
-----------------------|--3--------------------|-----------------------|


  Em                      D                       Em                    
--0------0----0--0--0--|--2------2----2--2--2--|--0------0----0--0--0--|
--0------0----0--0--0--|--3------3----3--x--3--|--0------0----0--0--0--|
--0------0----0--0--0--|--2------2----2--x--2--|--0------0----0--0--0--|
--2------2----2--x--x--|--0--------------------|--2------2----2--x--x--|
--2--------------x--x--|--0--------------------|--2--------------x--x--|
--0--------------------|-----------------------|--0--------------------|


  C                       Em                      D                     
--0------0----0--0--0--|--0------0----0--0--0--|--2------2----2--2--2--|
--1------1----1--1--1--|--0------0----0--0--0--|--3------3----3--x--3--|
--0------0----0--0--0--|--0------0----0--0--0--|--2------2----2--x--2--|
--2------2-------------|--2------2----2--x--x--|--0--------------------|
-----------------------|--2--------------x--x--|--0--------------------|
-----------------------|--0--------------------|-----------------------|


  G                       Am                      Em                    
--3------3----3--3--3--|--0------0----0--0--0--|--0------0----0--0--0--|
--0------0----0--0--0--|--1------1----1--1--1--|--0------0----0--0--0--|
--0------0----0--0--0--|--2------2----2--2--2--|--0------0----0--0--0--|
--0------0----x--x--x--|--2------2----x-----x--|--2------2----2--x--x--|
--2--------------------|--0--------------------|--2--------------x--x--|
--3--------------------|-----------------------|--0--------------------|


  D                       C                         C           C         
--2------2----2--2--2--|--0------0----0--0--0--|----0--0--0--0--2--2-----|
--3------3----3--x--3--|--1------1----1--1--1--|----1--1--1--0--3--3-----|
--2------2----2--x--2--|--0------0----0--0--0--|----0--0--0--x--2--2--x--|
--0--------------------|--2------2----2--2--2--|----2--2--2--x--0--0--x--|
--0--------------------|--3------3----x--x--x--|----------------------x--|
-----------------------|-----------------x-----|----------------------x--|


    Em                      Bm                      C                     
|---0------0----0--x--0--|--2------2----2--2--2--|--0------0----0--x--0--|
|---0------0----0--0--0--|--3------3----3--3--3--|--1------1----1--1--1--|
|*--0------0----0--0--0--|--4------4----4--4--4--|--0------0----0--0--0--|
|*--2------2----2--2--2--|--4------4----4--4--4--|--2------2----2--2--2--|
|---2------2----2--2--x--|--2------2----2--2--2--|--3------3----x--3--x--|
|---0------x----x--x--x--|--2------x----x--2--x--|---------x----------x--|


  G           D              Em                      Bm                    
--3--3--------2--2--------|--0------0----0--x--0--|--2------2----2--2--2--|
--3--3--3-----3--3--3--x--|--0------0----0--0--0--|--3------3----3--3--3--|
--0-----0--0--2-----2--2--|--0------0----0--0--0--|--4------4----4--4--4--|
--0--------0--0--------0--|--2------2----2--2--2--|--4------4----4--4--4--|
--2-----------------------|--2------2----2--2--x--|--2------2----2--2--2--|
--3-----------------------|--0------x----x--x--x--|--2------x----x--2--x--|


  C                       G           D                                      
--0------0----0--x--0--|--3--3--------2--2---------||-----------------------|
--1------1----1--1--1--|--3--3--3-----3--3--3--x---||-----------------------|
--0------0----0--0--0--|--0-----0--0--2-----2--2--*||-----------0-----------|
--2------2----2--2--2--|--0--------0--0--------0--*||--------2-------2------|
--3------3----x--3--x--|--2------------------------||-----2-----------------|
---------x----------x--|--3------------------------||--0--------------------|


                      Em                      D                     
--0----------------|--0------0----0--0--0--|--2------2----2--2--2--|
--1----------------|--0------0----0--0--0--|--3------3----3--x--3--|
--0----------------|--0------0----0--0--0--|--2------2----2--x--2--|
--2----------------|--2------2----2--x--x--|--0--------------------|
-------------------|--2--------------x--x--|--0--------------------|
-------------------|--0--------------------|-----------------------|


  G                       Am                      Em                    
--3------3----3--3--3--|--0------0----0--0--0--|--0------0----0--0--0--|
--0------0----0--0--0--|--1------1----1--1--1--|--0------0----0--0--0--|
--0------0----0--0--0--|--2------2----2--2--2--|--0------0----0--0--0--|
--0------0----x--x--x--|--2------2----x-----x--|--2------2----2--x--x--|
--2--------------------|--0--------------------|--2--------------x--x--|
--3--------------------|-----------------------|--0--------------------|


  D                       Em                      C                     
--2------2----2--2--2--|--0------0----0--0--0--|--0------0----0--0--0--|
--3------3----3--x--3--|--0------0----0--0--0--|--1------1----1--1--1--|
--2------2----2--x--2--|--0------0----0--0--0--|--0------0----0--0--0--|
--0--------------------|--2------2----2--x--x--|--2------2-------------|
--0--------------------|--2--------------x--x--|-----------------------|
-----------------------|--0--------------------|-----------------------|


  Em                      D                       G                     
--0------0----0--0--0--|--2------2----2--2--2--|--3------3----3--3--3--|
--0------0----0--0--0--|--3------3----3--x--3--|--0------0----0--0--0--|
--0------0----0--0--0--|--2------2----2--x--2--|--0------0----0--0--0--|
--2------2----2--x--x--|--0--------------------|--0------0----x--x--x--|
--2--------------x--x--|--0--------------------|--2--------------------|
--0--------------------|-----------------------|--3--------------------|


  Am                      Em                      D                     
--0------0----0--0--0--|--0------0----0--0--0--|--2------2----2--2--2--|
--1------1----1--1--1--|--0------0----0--0--0--|--3------3----3--x--3--|
--2------2----2--2--2--|--0------0----0--0--0--|--2------2----2--x--2--|
--2------2----x-----x--|--2------2----2--x--x--|--0--------------------|
--0--------------------|--2--------------x--x--|--0--------------------|
-----------------------|--0--------------------|-----------------------|


  C                         C           C             Em                    
--0------0----0--0--0--|----0--0--0--0--2--2-----||---0------0----0--x--0--|
--1------1----1--1--1--|----1--1--1--0--3--3-----||---0------0----0--0--0--|
--0------0----0--0--0--|----0--0--0--x--2--2--x--||*--0------0----0--0--0--|
--2------2----2--2--2--|----2--2--2--x--0--0--x--||*--2------2----2--2--2--|
--3------3----x--x--x--|----------------------x--||---2------2----2--2--x--|
-----------------x-----|----------------------x--||---0------x----x--x--x--|


  Bm                      C                       G           D            
--2------2----2--2--2--|--0------0----0--x--0--|--3--3--------2--2--------|
--3------3----3--3--3--|--1------1----1--1--1--|--3--3--3-----3--3--3--x--|
--4------4----4--4--4--|--0------0----0--0--0--|--0-----0--0--2-----2--2--|
--4------4----4--4--4--|--2------2----2--2--2--|--0--------0--0--------0--|
--2------2----2--2--2--|--3------3----x--3--x--|--2-----------------------|
--2------x----x--2--x--|---------x----------x--|--3-----------------------|


  Em                      Bm                      C                     
--0------0----0--x--0--|--2------2----2--2--2--|--0------0----0--x--0--|
--0------0----0--0--0--|--3------3----3--3--3--|--1------1----1--1--1--|
--0------0----0--0--0--|--4------4----4--4--4--|--0------0----0--0--0--|
--2------2----2--2--2--|--4------4----4--4--4--|--2------2----2--2--2--|
--2------2----2--2--x--|--2------2----2--2--2--|--3------3----x--3--x--|
--0------x----x--x--x--|--2------x----x--2--x--|---------x----------x--|


  G           D                 C                       D                     
--3--3--------2--2---------||---0------0----0--x--0--|--2------2----2--2--2--|
--3--3--3-----3--3--3--x---||---1------1----1--1--1--|--3------3----3--x--3--|
--0-----0--0--2-----2--2--*||*--0------0----0--0--0--|--2------2----2--x--2--|
--0--------0--0--------0--*||*--2------2----2--2--2--|--0--------------------|
--2------------------------||---3------3----x--3--x--|--0--------------------|
--3------------------------||----------x----------x--|--x--------------------|


  B7/E                    G           D              C                     
--2------2----2--2--2--|--0--0--------2--2--------|--0------0----0--x--0--|
--0------0----0--0--0--|--0--0--0-----3--3--3--x--|--1------1----1--1--1--|
--2------2----2--2--2--|--0-----0--0--2-----2--2--|--0------0----0--0--0--|
--1------x----x-----x--|--2--------2--0--------0--|--2------2----2--2--2--|
--2-----------x--x--x--|--2-----------------------|--3------3----x--3--x--|
-----------------------|--0-----------------------|---------x----------x--|


  D                       B7/E                    G           D            
--2------2----2--2--2--|--2------2----2--2--2--|--0--0--------2--2--------|
--3------3----3--x--3--|--0------0----0--0--0--|--0--0--0-----3--3--3--x--|
--2------2----2--x--2--|--2------2----2--2--2--|--0-----0--0--2-----2--2--|
--0--------------------|--1------x----x-----x--|--2--------2--0--------0--|
--0--------------------|--2-----------x--x--x--|--2-----------------------|
--x--------------------|-----------------------|--0-----------------------|


  C                                                Em          Em        
--0------0----0--0--0--|----0--0--0----0--0--0--|--------------0--0--0--|
--1------1----1--1--1--|----1--1--1----1--1--1--|--x----x------0--0--0--|
--0------0----0--0--0--|----0--0--0----0--0--0--|--x----x------1--1--1--|
--2--------------2--2--|----2--2--2----2--2--2--|--2----2------2-----2--|
--3--------------------|------------------------|--2----2------------2--|
-----------------------|------------------------|--0----0---------------|


                             F#m                                           
-------x--x----0--0--0--||---2------2----2--2--2--|--4------4----4--4--4--|
----x--x--0----0--0--0--||---2------2----2--2--2--|--5------5----5--5--5--|
----1--1--1----1--1--1--||*--2------2----2--2--2--|--6------6----6--6--6--|
----2--2--2----2--2--2--||*--4------4----4--4--4--|--6------6----6--6--6--|
----2--2--2----2--2--2--||---4------4----4--4--4--|--4------4----4--4--4--|
----0--0--0----0--0--0--||---2------2----2--x--2--|--4------4----4--4--4--|


  D                       A           E              F#m                   
--2------2----2--2--2--|--0--x--------0-----------|--2------2----2--2--2--|
--3------3----3--3--3--|--2--2--------0--0-----0--|--2------2----2--2--2--|
--2------2----2--2--2--|--2--2--2-----1--1--1--1--|--2------2----2--2--2--|
--0------0----0--0--0--|--2-----2--2--2-----2--2--|--4------4----4--4--4--|
-----------------------|--0--------0--2--------2--|--4------4----4--4--4--|
-----------------------|--------------0-----------|--2------2----2--x--2--|


                          D                       A           E              
--4------4----4--4--4--|--2------2----2--2--2--|--0--x--------0------------||
--5------5----5--5--5--|--3------3----3--3--3--|--2--2--------0--0-----0---||
--6------6----6--6--6--|--2------2----2--2--2--|--2--2--2-----1--1--1--1--*||
--6------6----6--6--6--|--0------0----0--0--0--|--2-----2--2--2-----2--2--*||
--4------4----4--4--4--|-----------------------|--0--------0--2--------2---||
--4------4----4--4--4--|-----------------------|--------------0------------||


                          F#m                
-----------------------|--2----------------||
-----------------------|--3----------------||
-----------2-----------|--2----------------||
--------4-------4------|--4----------------||
-----4-----------------|-------------------||
--2--------------------|-------------------||
Tap to rate this tab
# A B C D E F G H I J K L M N O P Q R S T U V W X Y Z