Guitaretab - guitar tabs
Song name
# A B C D E F G H I J K L M N O P Q R S T U V W X Y Z

Him - Rip Out The Wings Of A Butterfly tab

Him Wings of a butterfly
Tabbed by Liam 
Email: guitar_rocker_47@hotmail.com
Tuning standard –just for you guys

 |Intro
 |Guitar 1
E|---------------------------------------------------------------------------|
B|-6---6----6--4h6p4\2--4----4--4--4--4--4--4---2h4p2----2-------------------|
G|---3---3-----------------1--1--1--1--1--1-----------5--------6---6----5----|
D|-------------------------------------------------------------------6-----6-|
A|-----------------------------------------------------------6---6-----------|
E|---------------------------------------------------------------------------|
 |Guitar 2
E|---------------------------------------------------------------------------|
B|---------------------------------------------------------------------------|
G|---------------------------------------------------------------------------|
D|---------------------------------------------------------------------------|
A|----------------------------------------------------------------------6--6-|
E|----------------------------------------------------------------------4--4-|
 
 |Guitar 1
E|---------------------------------------------------------------------------|
B|-6---6----6--4h6p4\2--4----4--4--4--4--4--4---2h4p2----2-------------------|
G|---3---3-----------------1--1--1--1--1--1-----------5--------6---6----5----|
D|-------------------------------------------------------------------6-----6-|
A|-----------------------------------------------------------6---6-----------|
E|---------------------------------------------------------------------------|
|Guitar 2
E|---------------------------------------------------------------------------|
B|---------------------------------------------------------------------------|
G|---------------------------------------------------------------------------|
D|--8~~----------------------------------------------------------------------|
A|--8~~-----------------------------------------------------------------6--6-|
E|--6~~-----------------------------------------------------------------4--4-|
 
 |Guitar 1
E|---------------------------------------------------------------------------|
B|-6---6----6--4h6p4\2--4----4--4--4--4--4--4---2h4p2----2-------------------|
G|---3---3-----------------1--1--1--1--1--1-----------5--------6---6----5----|
D|-------------------------------------------------------------------6-----6-|
A|-----------------------------------------------------------6---6-----------|
E|---------------------------------------------------------------------------|
 |Guitar 2
E|---------------------------------------------------------------------------|
B|---------------------------------------------------------------------------|
G|-3-3-3-3-3-----------------------------------------------------------------|
D|-3-3-3-3-3-----8---6-6-6-6-6-6-6-6-6-6-6-6-6---4---3------------6--6--6--6-|
A|-1-1-1-1-1--6--8---6-6-6-6-6-6-6-6-6-6-6-6-6---4---3--6--6-6-6--6--6--6--6-|
E|------------6--6---4-4-4-4-4-4-4-4-4-4-4-4-4---2---1--6--6-6-6--4--4--4--4-|

 |Guitar 1
E|------------------------------------------------------------|
B|-6---6----6--4h6p4\2--4----4--4--4--4--4--4---2h4p2----2~~--|
G|---3---3-----------------1--1--1--1--1--1-----------5-------|
D|------------------------------------------------------------|
A|------------------------------------------------------------|
E|------------------------------------------------------------|
 |Guitar 2
E|------------------------------------------------------------|
B|------------------------------------------------------------|
G|-3-3-3-3-3--------------------------------------------------|
D|-3-3-3-3-3-----8---6-6-6-6-6-6-6-6-6-6-6-6-6---4---3--------|
A|-1-1-1-1-1--6--8---6-6-6-6-6-6-6-6-6-6-6-6-6---4---3---6~~--|
E|------------6--6---4-4-4-4-4-4-4-4-4-4-4-4-4---2---1---6~~--|

 |Verse
 |Guitar 2 only
E|------------------------------------------------------------------|
B|------------------------------------------------------------------|
G|------------------------------------------------------------------|
D|------------------------------------------------------------------|
A|-6--8---8-------8--6--6-------6---8--6---8--10---8--6----6--8---8-|
E|-4--6---6-------6--4--4-------4---6--4---6---8---6--4----4--6---6-|
PM ********       *******       ***********************    ********

E|------------------------------------------------------------------------|
B|------------------------------------------------------------------------|
G|------------------------------------------------------------------------|
D|--------------------------------------------------------------------6-6-|
A|-6--6-----6--6-----8--6--6----6---8--6---8--10---8--6---6~~~~~------6-6-|
E|-4--4-----4--4-----6--4--4----4---6--4---6---8---6--4---6~~~~~------4-4-|
PM ****     ****     *******    ***********************

 |Chorus
 |Guitar 2 only
E|---------------------------------------------------------------------------|
B|---------------------------------------------------------------------------|
G|-3-3-3-3-3-----------------------------------------------------------------|
D|-3-3-3-3-3-----8---6-6-6-6-6-6-6-6-6-6-6-6-6---4---3------------6--6--6--6-| x2
A|-1-1-1-1-1--6--8---6-6-6-6-6-6-6-6-6-6-6-6-6---4---3--6--6-6-6--6--6--6--6-|
E|------------6--6---4-4-4-4-4-4-4-4-4-4-4-4-4---2---1--6--6-6-6--4--4--4--4-|
[ Tab from: http://www.guitaretab.com/h/him/61951.html ]
 |Post Chorus
 |Guitar 1
E|------------------------------------------------------------|
B|-6---6----6--4h6p4\2--4----4--4--4--4--4--4---2h4p2----2~~--|
G|---3---3-----------------1--1--1--1--1--1-----------5-------|
D|------------------------------------------------------------|
A|------------------------------------------------------------|
E|------------------------------------------------------------|
 |Guitar 2
E|------------------------------------------------------------|
B|------------------------------------------------------------|
G|-3-3-3-3-3--------------------------------------------------|
D|-3-3-3-3-3-----8---6-6-6-6-6-6-6-6-6-6-6-6-6---4---3--------|
A|-1-1-1-1-1--6--8---6-6-6-6-6-6-6-6-6-6-6-6-6---4---3---6~~--|
E|------------6--6---4-4-4-4-4-4-4-4-4-4-4-4-4---2---1---6~~--|

 |Verse 2
 |Guitar 2 only
E|------------------------------------------------------------------------|
B|------------------------------------------------------------------------|
G|------------------------------------------------------------------------|
D|------------------------------------------------------------------------|
A|-6--8---8----6--6-----8--6--6-------6---8--6---8--10---8--6----6--8---8-|
E|-4--6---6----4--4-----6--4--4-------4---6--4---6---8---6--4----4--6---6-|
PM ********    ****     *******       ***********************    ********

E|------------------------------------------------------------------------|
B|------------------------------------------------------------------------|
G|------------------------------------------------------------------------|
D|--------------------------------------------------------------------6-6-|
A|-6--6-----6--6-----8--6--6----6---8--6---8--10---8--6---6~~~~~------6-6-|
E|-4--4-----4--4-----6--4--4----4---6--4---6---8---6--4---6~~~~~------4-4-|
PM ****     ****     *******    ***********************


|Bridge
|Guitar 1
E|---------------------------------------------------------------------------|
B|-6---6----6--4h6p4\2--4----4--4--4--4--4--4---2h4p2----2-------------------|
G|---3---3-----------------1--1--1--1--1--1-----------5--------6---6----5----|
D|-------------------------------------------------------------------6-----6-|\
A|-----------------------------------------------------------6---6-----------| \
E|---------------------------------------------------------------------------|  \
 |Guitar 2   							     x2
E|---------------------------------------------------------------------------|  /
B|---------------------------------------------------------------------------| /
G|-3-3-3-3-3-----------------------------------------------------------------|/
D|-3-3-3-3-3-----8---6-6-6-6-6-6-6-6-6-6-6-6-6---4---3------------6--6--6--6-|
A|-1-1-1-1-1--6--8---6-6-6-6-6-6-6-6-6-6-6-6-6---4---3--6--6-6-6--6--6--6--6-|
E|------------6--6---4-4-4-4-4-4-4-4-4-4-4-4-4---2---1--6--6-6-6--4--4--4--4-|

 |Bridge part 2
 |Guitar 2 only
E|-----|-------------------------------|-------------------------------|
B|-----|-------------------------------|-------------------------------|
G|-3~~-|-------------------------------|-------------------------------|
D|-3~~-|-------------------------------|-------------------------------|
A|-1~~-|-------------------------------|-------------------------------|
E|-----|--1--/--4---3--1---6--1-/-4---6|--1--/--4---3--1---6--1-/-4--10|

E|-------------------------------------|----------------------------------------|
B|-------------------------------------|----------------------------------------|
G|-------------------------------------|-------------------------------------7~-|
D|-3---6--5---3--------------3---6-----|-3---6--5---3-----------------3---6--z--|
A|-3---6--5---3--6--6-----6--3---6---6-|-3---6--5---3--6---6-----6----3---6--5~-|
E|-1---4--3---1--6--6--8--6--1---4---6-|-1---4--3---1--6---6--8--6----1---4-----|

E|-------------------------------------|
B|-------------------------------------|
G|--6~~-------9~~------10~~------------|
D|--x~~-------x~~-------x~~-------6--6-|
A|--4~~-------7~~-------8~~-------6--6-|
E|--------------------------------4--4-|

 |Outro
|Guitar 1
E|---------------------------------------------------------------------------|
B|-6---6----6--4h6p4\2--4----4--4--4--4--4--4---2h4p2----2-------------------|
G|---3---3-----------------1--1--1--1--1--1-----------5--------6---6----5----|
D|-------------------------------------------------------------------6-----6-|\
A|-----------------------------------------------------------6---6-----------| \
E|---------------------------------------------------------------------------|  \
 |Guitar 2   							     x5
E|---------------------------------------------------------------------------|  /
B|---------------------------------------------------------------------------| /
G|-3-3-3-3-3-----------------------------------------------------------------|/
D|-3-3-3-3-3-----8---6-6-6-6-6-6-6-6-6-6-6-6-6---4---3------------6--6--6--6-|
A|-1-1-1-1-1--6--8---6-6-6-6-6-6-6-6-6-6-6-6-6---4---3--6--6-6-6--6--6--6--6-|
E|------------6--6---4-4-4-4-4-4-4-4-4-4-4-4-4---2---1--6--6-6-6--4--4--4--4-|

 |End
|Guitar 1
E|------------------------------------------------------------|
B|-6---6----6--4h6p4\2--4----4--4--4--4--4--4---2h4p2----2~~--|
G|---3---3-----------------1--1--1--1--1--1-----------5-------|
D|------------------------------------------------------------|
A|------------------------------------------------------------|
E|------------------------------------------------------------|
 |Guitar 2
E|------------------------------------------------------------|
B|------------------------------------------------------------|
G|-3-3-3-3-3--------------------------------------------------|
D|-3-3-3-3-3-----8---6-6-6-6-6-6-6-6-6-6-6-6-6---4---3--------|
A|-1-1-1-1-1--6--8---6-6-6-6-6-6-6-6-6-6-6-6-6---4---3--\6~~--|
E|------------6--6---4-4-4-4-4-4-4-4-4-4-4-4-4---2---1--\6~~--|

Order

Intro
Verse
Chorus
Post Chorus
Verse 2
Chorus
Bridge
Bridge part 2
Outro
End
Related for Rip Out The Wings Of A Butterfly tab