Song name
# A B C D E F G H I J K L M N O P Q R S T U V W X Y Z

Him - Stigmata Diaboli tab

okay this is an old demo song, its the earlier version of sigillum diaboli,
personally i think this version is better.

HIM
Stigmata Diaboli
666 Ways To Love Prologue: EP

Standard Tuning

intro
|-----------------------------------|  |----------------------------------|
|-----------------------------------|  |----------------------------------|
|-----------------------------------|  |----------------------------------|
|---------6--------------6----------|  |---------6--------------6-------2-|
|-2-2-2-2---6-7~-2-2-2-2---6-4-6-7~-|  |-2-2-2-2---6-7~-2-2-2-2---6-4-2-0-|
|-0-0-0-0--------0-0-0-0------------|x3|-0-0-0-0--------0-0-0-0-----------|
  pm-----|       pm-----|                pm-----|       pm-----|

verse(i can see...)
|-----------------------------------------------------------------|
|-----------------------------------------------------------------|
|-----------------------------------------------------------------|
|---------------------------------4-4-4-4-4-4-4-4-----------------|
|-6-6-6-6-6-6-6-6-6-6-6-6-6-6-6-6-2-2-2-2-2-2-2-2-4-4-4-4-4-4-4-4-|
|-4-4-4-4-4-4-4-4-4-4-4-4-4-4-4-4-----------------2-2-2-2-2-2-2-2-|
  pm--------------------------------------------------------------|

chorus
|------------------------------------------------------------------|
|------------------------------------------------------------------|
|--------------------------6/8-8-8--88-6/8-8-8--88-----------------|
|-4/6-6-6--66-4/6-6-6--66--6/8-8-8--88-6/8-8-8--88-----------------|
|-4/6-6-6--66-4/6-6-6--66--4/6-6-6--66-4/6-6-6--66-9-9-9-9-8-8-8-8-|
|-2/4-4-4--44-2/4-4-4--44--------------------------7-7-7-7-6-6-6-6-|

bridge
|-------------------------------|
|-------------------------------|
|-----11p9--11p9-11p9-11p9-11p9-|
|-----11p9--11p9-11p9-11p9-11p9-|
|-9-9---------------------------|
|-------------------------------|
  pm-|

bridge2(just play first one couple of times then go to)
|--------------------------------------|
|--------------------------------------|
|-------13p11--13p11-13p11-13p11-13p11-|
|-------13p11--13p11-13p11-13p11-13p11-|
|-11-11--------------------------------|
|--------------------------------------|a couple of times then

|--------------------------------------|
|--------------------------------------|
|-------14p12--14p14-------------------|
|-------14p12--12p14-------------------|
|-12-12--------------12p10-12p10-12p10-|
|--------------------12p10-12p10-12p10-|

for the outro just play the intro and end on
|----|
|----|
|----|
|-6~-|
|-6~-|
|-4~-|

well thats the parts for stigmata diaboli, if u dont know this version then just mess
around with this tab and fugure out sigillum diaboli, only main difference is sigillum
has a solo and i dont know. if u dont know this version u should check out its onthe
internet somewhere. rate this please, cheers
Tap to rate this tab
# A B C D E F G H I J K L M N O P Q R S T U V W X Y Z