Song name
# A B C D E F G H I J K L M N O P Q R S T U V W X Y Z

Him - Under The Rose tab

Under The Rose 
H.I.M
Track number 3 from Dark Light (2005)
Tabbed By: Mariano Arnaiz
Anything to : marianoarnaiz@hotmail.com
Tunning:Standard (EADGBe)



Intro (Main Riff)
e||--------7------5------7------8-----10------|-------7------5------8------5------7------||
B||-----0----0------0------0------0------0----|----0----0------0------0------0------0----||
G||--0---------0------0------0------0------0--|--0--------0------0------0------0------0--|| x4
D||-------------------------------------------|------------------------------------------||
A||-------------------------------------------|------------------------------------------||
E||-------------------------------------------|------------------------------------------||

Verse (strum constantly, with distortion and low volume)

      G              D                             (Em)Main Riff
      I dream of the winter in my heart turning to spring
      G              D                             (Em)Main Riff
      While .. gives way .........under ........my feet
e||--(3)---------------------------------------------------||
B||--(3)-------------5------------------------------8------||
G||---4--------------5------------------------------9------||
D||---5--------------5------------------------------9------||
A||---5--------------7------------------------------7------||
E||---3---------------------------------------------0------||

     C6                      B
     And so I drown with the sun
e||---0----------------------------------||
B||---3-----------------------4--4-4-4---||
G||---0-----------------------4--4-4-4---||
D||---2-----------------------4--4-4-4---||
A||---3-----------------------2--2-2-2---||
E||---0-----------------------2--2-2-2---||


Chorus (hight distortion, strum energeticly) 
 
          C5         G         D5          E5
I've been burning in water and drowning in flame
   C5        G         D5        E5
To prove you wrong and scare you away
C5    G      D5                 E5
I have never minded the one back home
     C5    D5        E5
Your heart under the rose

    C5    G    D5   E5
e||----------------------||
B||----------------(8)---||
G||--5----4----7----9----||
D||--5----5----7----9----||
A||--3----5----5----7----||
E||--3----3----5----0----||



Verse (strum constantly, with distortion and low volume)

      G              D                             (Em)Main Riff
      I open .....my eyes with ...a sigh........ of relief
      G              D                             (Em)Main Riff
      As.. warmth of summer sunlight dances..... around me
e||--(3)---------------------------------------------------||
B||--(3)-------------5------------------------------8------||
G||---4--------------5------------------------------9------||
D||---5--------------5------------------------------9------||
A||---5--------------7------------------------------7------||
E||---3---------------------------------------------0------||

     C6                      B
     That's .. .. leaves ... hands
e||---0----------------------------------||
B||---3-----------------------4--4-4-4---||
G||---0-----------------------4--4-4-4---||
D||---2-----------------------4--4-4-4---||
A||---3-----------------------2--2-2-2---||
E||---0-----------------------2--2-2-2---||



Chorus (hight distortion, strum energeticly) 
 
          C5         G         D5          E5
I've been burning in water and drowning in flame
   C5        G         D5        E5
To prove you wrong and scare you away
C5    G      D5                 E5
I have never minded the one back home
     C5    D5        E5
Your heart under the rose

    C5    G    D5   E5
e||----------------------||
B||----------------(8)---||
G||--5----4----7----9----||
D||--5----5----7----9----||
A||--3----5----5----7----||
E||--3----3----5----0----||


Solo(not exactly the thing but its close, and at least you have something to start with)

e||--------------------------------|--------------------------------------------------||
B||--10(x6)--8(x6)--10(x6)--8(x6)--|--10(x6)--8(x6)--7(x6)--7/8-8/10--10b.12.r10--12--||
G||--------------------------------|--------------------------------------------------||
D||--------------------------------|--------------------------------------------------||
A||--------------------------------|--------------------------------------------------||
E||--------------------------------|--------------------------------------------------||

e||-------5-7-8-------7h8---------7h8p7--------7h8p7--|--10b.12.12.12.....------||
B||--8p7---------/-10------7h8p7--------7h8p7---------|-------------------------||
G||---------------------------------------------------|-------------------------||
D||---------------------------------------------------|-------------------------||
A||---------------------------------------------------|-------------------------||
E||---------------------------------------------------|-------------------------||

        
Chorus (hight distortion, strum energeticly) 
 
          C5         G         D5          E5
I've been burning in water and drowning in flame
   C5        G         D5        E5
To prove you wrong and scare you away
C5    G      D5                 E5
I have never minded the one back home
     C5    D5        E5
Your heart under the rose

    C5    G    D5   E5
e||----------------------||
B||----------------(8)---||
G||--5----4----7----9----||
D||--5----5----7----9----||
A||--3----5----5----7----||
E||--3----3----5----0----||

     C5    D5        E5
Your heart under the rose  
     C5    D5        E5
Your heart under the rose  
     C5    D5        E5
Your heart under the rose  



Outro (fade out)

e||-----------15----|-----------14-----||
B||--12-13-12---12--|--12-13-12----12--||
G||-----------------|------------------||
D||-----------------|------------------||
A||-----------------|------------------||
E||-----------------|------------------||

Tap to rate this tab
# A B C D E F G H I J K L M N O P Q R S T U V W X Y Z