Song name
# A B C D E F G H I J K L M N O P Q R S T U V W X Y Z

Him - Behined The Crimson Door tab

 this song is in Drop D    [Intro]


[--0-------0---0-------0--1-----0-------0---0-------0---------------]
[----3---3---3---3---3------------3---3---3---3---3---3-------------]
[------5-----------5----------------5-----------5-------5-----------]
[-------------------------------------------------------------------]
[-------------------------------------------------------------------]
[-------------------------------------------------------------------]


                  [chorus]

[--7--7--7--7--7--7--7--7--7--7--7--7---10--14--12--10--9--5--10-----]
[--7--7--7--7--7--7--7--7--7--7--7--7---10--14--12--10--9--5--10-----]
[--7--7--7--7--7--7--7--7--7--7--7--7---10--14--12--10--9--5--10-----]
[--------------------------------------------------------------------]
[--------------------------------------------------------------------]
[--------------------------------------------------------------------]


this is all of the song i know right now but i will post the rest of the song when i study it more



have fun!
Tap to rate this tab
# A B C D E F G H I J K L M N O P Q R S T U V W X Y Z