Guitaretab - guitar tabs
Song name
# A B C D E F G H I J K L M N O P Q R S T U V W X Y Z

Him - Gone With The Sin tab

Song         : gone with the sin
Album        : Razorblade Romance
Tabbed by    : Ilir Livoreka
Msn          : iLoo.st@hotmail.com

[Pjesa 1]
I love your skin oh how so white
I love your touch cold as ice
And I love every single tear you cry

I just love the way you're losing your life
                                        F
e---------------------------------------1-|
B---------------------------------------1-|
G---------------------------------------2-|
D---------------------------------------3-|
A---------------------------------------3-|
E---------------------------------------1-|

[Ref]
   Am          G           F           C        G
e--0-00-0-00---3-33-3-33---1-11-1-11-----------------------|
B--1-11-1-11---0-00-0-00---1-11-1-11---------1-------------|
G--2-22-2-22---0-00-0-00---2-22-2-22-------0---------------|
D--2-22-2-22---0-00-0-00---3-33-3-33-----2----------0-2----|
A--0-00-0-00---2-22-2-22---3-33-3-33---3----------2--------|
E--0-----------3-33-3-33---0--------------------3----------|
   Wowoo o o o o my Baby,  how beautiful you are

   Am          G           F           C        G
e--0-00-0-00---3-33-3-33---1-11-1-11-----------------------|
B--1-11-1-11---0-00-0-00---1-11-1-11---------1-------------|
G--2-22-2-22---0-00-0-00---2-22-2-22-------0---------------|
D--2-22-2-22---0-00-0-00---3-33-3-33-----2----------0-2----|
A--0-00-0-00---2-22-2-22---3-33-3-33---3----------2--------|
E--0-----------3-33-3-33---0--------------------3----------|
   Wowoo o o o o my Darling, completely torn apart

   Am          G           F           C        G
e--0-00-0-00---3-33-3-33---1-11-1-11-----------------------|
B--1-11-1-11---0-00-0-00---1-11-1-11---------1-------------|
G--2-22-2-22---0-00-0-00---2-22-2-22-------0---------------|
D--2-22-2-22---0-00-0-00---3-33-3-33-----2----------0-2----|
A--0-00-0-00---2-22-2-22---3-33-3-33---3----------2--------|
E--0-----------3-33-3-33---0--------------------3----------|
You're gone with the sin my Baby and beautiful you are


   Am          G               F
e--0-00-0-00---3-33-3-33-------1-----|
B--1-11-1-11---0-00-0-00-------1-----|
G--2-22-2-22---0-00-0-00-------2-----|
D--2-22-2-22---0-00-0-00-------3-----|
A--0-00-0-00---2-22-2-22-------3-----|
E--0-----------3-33-3-33-------1-----|
 You're gone with the sin my Darling

[pjesa 2]
N kt pjes luan vetm bass-kitara

G-----------------------------------|
D-----------------------------------|
A-----------------------------------| x2
E-5-5-5-5-5-0-3-5--3-3-3-3-3-0-0-3--|
I adore the despair in your eyes

G-----------------------------------|
D-----------------------------------|
A-----------------------------------| x2
E-5-5-5-5-5-0-3-5--3-3-3-3-3-0-0-3--|
I worship your lips once red as wine

G-----------------------------------|
D-----------------------------------|
A-----------------------------------| x2
E-5-5-5-5-5-0-3-5--3-3-3-3-3-0-0-3--|
I crave for your scent sending shivers down my spine

G-----------------------------------||-----|
D-----------------------------------||-----|
A-----------------------------------||-----|
E-5-5-5-5-5-0-3-5--3-3-3-3-3-0-0-3--||--1--|    Ktu I bashkngjitet kitara
I just love the way you're running out of life               
                                            F        <<<<<<<<
e-------------------------------------------1---|
B-------------------------------------------1---|
G-------------------------------------------2---|
D-------------------------------------------3---|
A-------------------------------------------3---|
E-------------------------------------------1---|
[ Tab from: http://www.guitaretab.com/h/him/8314.html ]
 [Ref]
   Am          G           F           C        G
e--0-00-0-00---3-33-3-33---1-11-1-11-----------------------|
B--1-11-1-11---0-00-0-00---1-11-1-11---------1-------------|
G--2-22-2-22---0-00-0-00---2-22-2-22-------0---------------|
D--2-22-2-22---0-00-0-00---3-33-3-33-----2----------0-2----|
A--0-00-0-00---2-22-2-22---3-33-3-33---3----------2--------|
E--0-----------3-33-3-33---0--------------------3----------|
   Wowoo o o o o my Baby,  how beautiful you are
   Am          G           F           C        G
e--0-00-0-00---3-33-3-33---1-11-1-11-----------------------|
B--1-11-1-11---0-00-0-00---1-11-1-11---------1-------------|
G--2-22-2-22---0-00-0-00---2-22-2-22-------0---------------|
D--2-22-2-22---0-00-0-00---3-33-3-33-----2----------0-2----|
A--0-00-0-00---2-22-2-22---3-33-3-33---3----------2--------|
E--0-----------3-33-3-33---0--------------------3----------|
   Wowoo o o o o my Darling, completely torn apart

   Am          G           F           C        G
e--0-00-0-00---3-33-3-33---1-11-1-11-----------------------|
B--1-11-1-11---0-00-0-00---1-11-1-11---------1-------------|
G--2-22-2-22---0-00-0-00---2-22-2-22-------0---------------|
D--2-22-2-22---0-00-0-00---3-33-3-33-----2----------0-2----|
A--0-00-0-00---2-22-2-22---3-33-3-33---3----------2--------|
E--0-----------3-33-3-33---0--------------------3----------|
You're gone with the sin my Baby and beautiful you are

   Am          G               F
e--0-00-0-00---3-33-3-33-------1-----|
B--1-11-1-11---0-00-0-00-------1-----|
G--2-22-2-22---0-00-0-00-------2-----|
D--2-22-2-22---0-00-0-00-------3-----|
A--0-00-0-00---2-22-2-22-------3-----|
E--0-----------3-33-3-33-------1-----|
 You're gone with the sin my Darling

[Solo]
Pr kt solo duhet Tremolo

h = rrshqitje e gishtit
td = Tremolo posht

e-------------------------------|-----------------------------------------|
B-------------------------------|-----------------------------------------|
G---9-7-5-4---4-5-7-5-4---------|---9-7-5-7-4-5-7-9-7-5-4-----------------|
D-7---------5-----------7-5-7---|-7-----------------------7-5-3-2-0-------|
A-----------------------------7-|-----------------------------------3-2-0-|
E-------------------------------|-----------------------------------------|

e---------------------------------------------------------|
B---------------------------------------------------------|
G---------------------------------------------------------|
D--------------0-2-0--------------------------------------|
A-0-2-3-2--2-3-------3-2-0------------0-2-3-2----2-3-2h3--|
E--------------------------3-2-0-td-2----------3----------|

Bass-kitara luan:
G-----------------------------|
D-----------------------------|
A-----------------------------|
E---9h1---9h1---9h1-----------|
[Ref]
   Bm          A           G
e--2-22-2-22---0-00-0-00---3-33-3-33---5--3h2h0---------|
B--3-33-3-33---2-22-2-22---0-00-0-00------------3h2h0---|
G--4-44-4-44---2-22-2-22---0-00-0-00--------------------|
D--4-44-4-44---2-22-2-22---0-00-0-00--------------------|
A--2-22-2-22---0-00-0-00---2-22-2-22--------------------|
E--------------------------3-33-3-33--------------------|
   Wowoo o o o o my Baby,  how beautiful you are

   Bm          A           G
e--2-22-2-22---0-00-0-00---3-33-3-33---5--3h2h0---------|
B--3-33-3-33---2-22-2-22---0-00-0-00------------3h2h0---|
G--4-44-4-44---2-22-2-22---0-00-0-00--------------------|
D--4-44-4-44---2-22-2-22---0-00-0-00--------------------|
A--2-22-2-22---0-00-0-00---2-22-2-22--------------------|
E--------------------------3-33-3-33--------------------|
   Wowoo o o o o my Darling, completely torn apart

   Bm          A           G
e--2-22-2-22---0-00-0-00---3-33-3-33---5--3h2h0---------|
B--3-33-3-33---2-22-2-22---0-00-0-00------------3h2h0---|
G--4-44-4-44---2-22-2-22---0-00-0-00--------------------|
D--4-44-4-44---2-22-2-22---0-00-0-00--------------------|
A--2-22-2-22---0-00-0-00---2-22-2-22--------------------|
E--------------------------3-33-3-33--------------------|
You're gone with the sin my Baby and beautiful you are

   Bm          A              G
e--2-22-2-22---0-00-0-00------3------|
B--3-33-3-33---2-22-2-22------3------|
G--4-44-4-44---2-22-2-22------4------|
D--4-44-4-44---2-22-2-22------5------|
A--2-22-2-22---0-00-0-00------5------|
E-----------------------------3------|
You're gone with the sin my Darling
Related for Gone With The Sin tab