Guitaretab - guitar tabs
Song name
# A B C D E F G H I J K L M N O P Q R S T U V W X Y Z

Him - Passions Killing Floor tab

(0:00)
E-------------------------------------------------------------------------|
B-------------------------------------------------------------------------|
G-------------------------------------------------------------------------|x5
D-------------------------------------------------------------------------|
A---4--4--4--2---2h0--------------------2--2--0---------------------------|
E-2--2--2--2-----------4---------------0--0--0--0--2h4--0-----------------|


E---------------------------------------------------------------------------|
B---------------------------------------------------------------------------|
G---------------------------------------------------------------------------|
D---------------------------------------------------------------------------|
A-22--22--22-----22-22-22-22---- 22-22-22-22-----44-44-44-44-44-------------|
E-00--00--00-----22-22-22-22-----00-00-00-00-----22-22-22-22-22----3/12/3---|


E---------------------------------------------------------------------------|
B---------------------------------------------------------------------------|
G---------------------------------------------------------------------------|
D---------------------------------------------------------------------------|
A-5-4-0---------------5-4-0----22-22-22-22--------7--6/7--2--4--------------|
E-----------0-4-2----------------00-00-00-00--------5--4/5--0--2------------|

E---------------------------------------------------------------------------|
B---------------------------------------------------------------------------|
G---------------------------------------------------------------------------|
D---4444444444444444----4444444444444444------------------------------------|
A---4444444444444444----2222222222222222----222222222222222-----------------|
E---2222222222222222----2222222222222222----000000000000000-----------------|

E----------------------------|
B----------------------------|
G----------------------------|
D---77777777-----------------|
A---77777777---------4/6--4--|
E---55555555-----0---2/4--2--|THEN BACK TO INTRO AGAIN
[ Tab from: http://www.guitaretab.com/h/him/92511.html ]
E---------------------------------------------------------------------------|
B---------------------------------------------------------------------------|
G---------------------------------------------------------------------------|x2
D---------------------------------------------------------------------------|
A---66-66-66-6--------44-44-44-4/-------------------------------------------|
E---44-44-44-4/9------22-22-22-2/7-5h7-4------------------------------------|


E----------------------------------------------------------------------------|
B----------------------------------------------------------------------------|
G----------------------------------------------------------------------------|
D--------5------------8------------------------------------------------------|
A--0-1-0-3------0-1-0-6-(pick slide)-----------------------------------------|x2
E--0-1-0-3-3/0--0-1-0-6------------------------------------------------------|


E----------------------------------------------------------------------------|
B----------------------------------------------------------------------------|
G----------------------------------------------------------------------------|
D--------5-8-10-8-5------------5-8-10-12--10---------------------------------|
A--0-1-0-3-6-8--6-3------0-1-0-3-6-8--10--8----------------------------------|x2
E--0-1-0-3-6-8--6-3------0-1-0-3-6-8--10--8----------------------------------|

E---------------------------------------------------------------------------|
B---------------------------------------------------------------------------|
G---------------------------------------------------------------------------|
D---------------------------------------------------------------------------|
A--------2-3--2-2-2-2-2-2---------2--2-2-2-2-2-2-2-2-2-2-2-2-2-2------------|
E--0-2-3------0-0-0-0-0-0---0-2-3----0-0-0-0-0-0-0-0-0-0-0-0-0-0------------|

THEN THE CHORUS AGAIN

AND THEN THE OUTRO JUST LIKE THE INTRO BUT THE LAST TIME IS LIKE THIS
                                                                                         
                          X2
E---------------------------------------------------------------------------|
B---5---5---5---3-2h3h0---------------5---5---5---3--2h3h0------------------|
G-2---2---2---2---------2-4-2-4b----2---2---2---2----------2-4-2-4bbbbbb----|
----------------------------------------------------------------------------|
D---------------------------------------------------------------------------|
A---------------------------------------------------------------------------|
E---------------------------------------------------------------------------|
Related for Passions Killing Floor tab