Guitaretab - guitar tabs
Song name
# A B C D E F G H I J K L M N O P Q R S T U V W X Y Z

Himsa - Jacob Shock tab

-------------------------------------------------------------------------------
			     Jacob Shock- Himsa
-------------------------------------------------------------------------------
Tabbed by: carl
Email:surfrat1234567@hotmail.com

Tuning:D
Intro/Riff A:
e|-----------------------------------------------------------------|
B|-----------------------------------------------------------------|
G|-----------------------------------------------------------------|
D|-----------------------------------------------------------------|
A|-0-6p5-0-8p7-0-6p5-0-0-0-6p5-0-8p7-0-6p5-0-0-0-6p5-0-8p7-0-6p5---|
D|-0-----0-----0-----0-0-0-----0-----0-----0-0-0-----0-----0-------|

e|-------------------------------|
B|-------------------------------|
G|-------------------------------|
D|-------------------------------|
A|-0-0-0-6p5-0-8p7-0-6p5-0-0-0---|
D|-0-0-0-----0-----0-----0-0-0---|
Riff:B
Guitar 1:

e|-------------------------------------------|
B|-------------------------------------------|
G|-------------------------------------------|
D|-------------------------------------------|
A|-0-0-0-0-0-0-0-0-0-0-0-0-0-0-0-0----1-1-1--|X2
D|-0-0-0-0-0-0-0-0-0-0-0-0-0-0-0-0----1-1-1--|
Guitar 2:

e|------------------------------------------------|
B|------------------------------------------------|
G|------------------------------------------------|
D|--8p710p9-8p7--8p7-10p9-8p7-------1-1-1-------|X2
A|------------------------------------1-1-1-------|
D|------------------------------------------------|
Riff:C

e|--------------------------------------------|
B|--------------------------------------------|
G|--------------------------------------------|
D|--------------------------------------------|
A|--0-0-0-0-0-7-7-7-7-7-8-8-8-8-8-7-7-7-7-7---|  X2
D|--------------------------------------------|
Riff:D
[ Tab from: http://www.guitaretab.com/h/himsa/49350.html ]
e|----------------------------------------------------|
B|----------------------------------------------------|
G|---------------------7-5-3-5-7-5h7------------------|
D|----7-5h7---7-5h7--3------------------7-5h7---7-5h7-|
A|--5-------5-------------------------5-------5-------|
D|----------------------------------------------------|



Riff:D cont
e|-------------------------------------|
B|-------------------------------------|
G|-------------------------------------|
D|---------5-5-5-5-7-7-7-7-8-8-8-8-----|
A|-3-3-3-3-----------------------------|
E|-------------------------------------|
Riff:B X1

Riff:E

e|---------------------------------------------------|
B|---------------------------------------------------|
G|---------------------------------------------------|
D|---------------------------------------------------|
A|-0-0---0-0---0-0---0--0--0-0---0-0---0-0---0--0----|X2
D|-0-0---0-0---0-0---0--0--0-0---0-0---0-0---0--0----|
Riff:F 

e|---------------------------------------------------|
B|---------------------------------------------------|
G|---------------------------------------------------|
D|---------------------------------------------------|
A|-0-0-0-0-3p1-0-0-0-0-0-0-3p1-3p1-0-0-0-0-3p1-0-0---|
D|-0-0-0-0-3p1-0-0-0-0-0-0-3p1-3p1-0-0-0-0-3p1-0-0---|
             
       
e|------------------------|   
B|------------------------|   
G|------------------------|   
D|---5-5-5-5-5-7-7-7-7-7--| X2  
A|------------------------|   
D|------------------------|   

e|------------------------------------------------|
B|------------------------------------------------|
G|------------------------------------------------|
D|-------------------------------5-5-5-5-4-4-4-4--|X2
A|-03p1-3p1-0-3p1-3p1-0-3p1-3p1------------------|
E|-0-3p1-3p1-0-3p1-31p-0-3p1-3p1------------------|

Riff:C X2

Riff:D X2

Riff:A X1

Riff:A X2

Riff:E X2


| /  slide up
| \  slide down
| h  hammer-on
| p  pull-off
| ~  vibrato
| +  harmonic
| x  Mute note


my first tab. Email comments, except for wes. Wes just needs to die.
Related for Jacob Shock tab