Song name
# A B C D E F G H I J K L M N O P Q R S T U V W X Y Z

Himsa - Girl In Glass tab

Help us improve GuitareTab! Take a short survey!
Right there are four guitars in his song, i know all the parts but i have combined the two guitars
together in some places to guve the effect of four guitars

C,G,C,F,A,D

INTRO

Guitar 1
|--------------------------------------------------------------------------------------------------------------|
|--------------------------------------------------------------------------------------------------------------|
|--------------------------------------------------------------------------------------------------------------|
|1212-1212-1212-1212-121212/1212-1212-1212-1212-1212-121212/1212-1212-1212-1212-1212-121212/1515-1212-121212/12|
|1010-1010-1010-1010-101010/1212-1212-1212-1212-1212-121212/1313-1313-1313-1313-1313-131313/1515-1212-121212/13|
|--------------------------------------------------------------------------------------------------------------| X4

then...
|-----------|
|-----------|
|-----------|
|1------7~--|
|1----------|
|1----------|
Guitar 2
|--------------------------------------------------------------------------------------------------------------|
|--------------------------------------------------------------------------------------------------------------|
|----------------------------9 9----------------------9 9 9\77-------------------------777/-7-7----------777/7-|
|12121---------------121212/1010---------------------101010\88-------------------------888/1010----------777/8-|
|1010----------------101010/-----------------------------------------------------------------------------------|
|--------------------------------------------------------------------------------------------------------------| 1st time

guitar two then goes for the next 3 bars
|-------------------------------------------------------------------------------------------|
|-------------------------------------------------------------------------------------------|
|----------------------------9-9--9-9--9-9--9-9--9-9--9-9-9\77-77-77-77-77-777/-7-7-77-777/7|
|1212-1212-1212-1212-121212/1010-1010-1010-1010-1010-101010\88-88-88-88-88-888/1010-77-777/8|
|1010-1010-1010-1010-101010/----------------------------------------------------------------|
|-------------------------------------------------------------------------------------------|

then...
|-----------|
|-----------|
|-----------|
|1----------|
|1------8~--|
|1----------|

1st VERSE

guitar 1
|-----------------------------------------------------------------------------------------------------------|
|---------------------11/10-11/10--------------------11/10-6/8--------------------11/10---------------------|
|----------------------X-X---X-X----------------------x-x---x-x--------------------x-x--------------------23|
|5-5555-555-555-555-5--8/7---8/7--3333-333-333-333-3--8/7--3/5--1111-111-111-111-1-8/7--01---------------3--|
|5-5555-555-555-555-5-------------3333-333-333-333-3------------1111-111-111-111-1------01-1111-111 1p0-1---|
|5-5555-555-555-555-5-------------3333-333-333-333-3------------1111-111-111-111-1------01 1111-111---------| X2
   .... ... ... ... .             .... ... ... ... .            .... ... ... ... .      .  .... ...

Guitar 2
|------------------------------------------------------------------------------------------------------------------|
|------------------------------------------------------------------------------------------------------------------|
|---------------------12/10--12/10----------------------12/10-7/8---------------------12/10------------------------|
|5-5555-555-555-555-5--X-X----X-X---3333-333-333-333-3-- X-X-X-X---1111-111-111-111-1--X-X---01---------------0-3/5|
|5-5555-555-555-555-5-10/ 8--10/ 8--3333-333-333-333-3--10/ 8-5/6--1111-111-111-111-1-10/ 8--01-1111-111 1p0-1-----|
|5-5555-555-555-555-5---------------3333-333-333-333-3-------------1111-111-111-111-1--------01 1111-111-----------| X2
   .... ... ... ... .               .... ... ... ... .             .... ... ... ... .        .  .... ...

Riff

both guitars 2 times then guitar 2 does the harmony
|--------------------------------------------------------------------------------|
|--------------------------------------------------------------------------------|
|--------------------------------------------------------------------------------|
|---------------------------------------------------------------------------3-2--|
|----------------5----------------5-7-1-1111111111111111-5-0000000000000000-----5|
|0000000000000000-0000000000000000-----------------------------------------------|
 ................ ................      ................   ................
Harmony to the riff
|------------------------------------|
|------------------------------------|
|------------------------------------|
|7~7810-7~7810-8~81012-8~81012-------|
|------------------------------------|
|------------------------------------|X2 whilst guitar 1 plays riff.

Then back into the verse


Chorus

The chorus has three guitas, i will tab out all three so you can decid which one you want to play.

Guitar 1
|---------------------------------------------------|
|---------------------------------------------------|
|---------------------------------------------------|
|-1-------3-------8-------7--------1-------3-------5|
|-1-------3-------8-------7--------1-------3-------5|
|-1-------3-------8-------7--------1-------3-------5| x2 played once for every two harmonies played

Guitar 2
|------------------------------------------------------------------|
|------------------------------------------------------------------|
|--7-8-5---5-7-3---3-5-2/7-5-8-7/8---7-8-5---5-7-3---3-5-2/10-8-7-8|
|5-------3-------1-----------------5-------3-------1---------------|
|------------------------------------------------------------------|
|------------------------------------------------------------------| X2

Guitar 3
|------------------------------------------------------------------|
|------------------------------------------------------------------|
|----12-10-----10-8-----8-7-----------12-10-----10-8-----8-7-------|
|8-8-------7-7------5-5-----------8-8-------7-7------5-5-----------|
|------------------------------------------------------------------|
|------------------------------------------------------------------| X2

Back into the riff

Breakdown

Both guitars
|-------------------------------------------------------------|
|-------------------------------------------------------------|
|-------------------------------------------------------------|
|-7-000000000-7/10-0000000-12-888888888-12/10-7777777---8-7-5-|
|-5-000000000-5/ 8-0000000-10-888888888-10/ 8-7777777---8-7-5-|
|---000000000------0000000----888888888-------7777777---8-7-5-| X2
    ........       ......     ........        ......      . .


|------------------------------------------------------------|
|------------------------------------------------------------|
|------------------------------------------------------------|
|-7----------7/10----------12----------12/10-----------------|
|-5-00000000-5/ 8-00000000-10-88888888-10/ 8-77777777--8-7-5-|
|---00000000------00000000----88888888-------77777777--8-7-5-| X4
    .. .. .       .. .. .     .. .. .        .. .. .

THen back into the riff

Then into the chorus

Outro which is the same as the intro, well its slightly different but you can learn the pattern yourself. ITS EASY!

i have spent alot of time on this song, please leave me feeback on it.......ENJOY!!!!!

stephen


love_lost_666_@hotmail.co.uk

















Related for Girl In Glass tab