Song name
# A B C D E F G H I J K L M N O P Q R S T U V W X Y Z

Himsa - Anathema tab

Help us improve GuitareTab! Take a short survey!
Tuning is Drop C

Intro (0:11) 2x

|------------------------------------------------------------|
|O-----------------------------------------------------------|
|------------------------------------------------------------|
|------------------------------------------------------------|
|O-0-0--10-9-6--0-0--10-9-7-9--0-0--10-9-6-----35---56-6*----|
|--0-0----------0-0------------0-0----------00----00---------|

|-------------------------------------------------------------|
|-------------------------------------------------------------|
|-------------------------------------------------------------|
|------------------------------------------0-0-0-0-3--0-0-0-5-|
|-0-0--10-9-6--0-0--10-9-7-9--0-0--10-9-6--0-0-0-0-3--0-0-0-5-|
|-0-0----------0-0------------0-0----------0-0-0-0-3--0-0-0-5-|


|-------------------------------------------------------------|
|-------------------------------------------------------------|
|------------------------------------------------------------O|
|-0-0-0-6*5*-0-0-0-0-3--0-0-0-5--0-0-0-6*5*-------------------|
|-0-0-0------0-0-0-0-3--0-0-0-5--0-0-0-----------------------O|
|-0-0-0------0-0-0-0-3--0-0-0-5--0-0-0------------------------|

*=pinch harmonic

|-O|
|--|=repeat
|-O|
Related for Anathema tab