Song name
# A B C D E F G H I J K L M N O P Q R S T U V W X Y Z

Himsa - Seminal tab

#----------------------------------PLEASE NOTE---------------------------------#
#This file is the author's own work and represents their interpretation of the #
#song. You may only use this file for private study, scholarship, or research. #
#------------------------------------------------------------------------------#



well i'm pretty sure this tab is 99% correct
only thing i didn't tab was the harmony in the solo
(solo was hard enough with just one guitar)
so yeahhh... this took a really long time and a lot of work
so i'd really appreciate it if you comment or rate it (5 STARS PLEEEEEASE!!)

yeah
comments/questions
ewlord-1492@hotmail.com
or AIM me at cheez1492
 
enjoy
 

Gtr I (C G C F A D) - 'lead guitar'
Gtr II (C G C F A D) - 'rhythm/harmony'
Gtr III (C G C F A D) - 'harmony'


    Q=160
    Gtr I
     S  S  S  S  S  S  S  S  S  S  S  S  S  S  S  S
||--------------------------------------------------|
||o-------------------------------------------------|
||--------------------------------------------------|
||--15-12-12-12-12-12-15-12-12-12-12-12-15-12-12-12-|
||o-------------------------------------------------|
||--------------------------------------------------|
|
|   Gtr II
|    S  S  E     Q           Q           E     E
||--------------------------------------------------|
||o-------------------------------------------------|
||--------------------------------------------------|
||--------------------------------------------------|
||o--0--0--0-----------------------------0-----0----|
||---0--0--0-----------------------------0-----0----|


   S  S  S  S  S  S  S  S  S  S  S  S  S  S  S  S
|--------------------------------------------------|
|--------------------------------------------------|
|--------------------------------------------------|
|-15-12-12-12-12-12-15-12-12-12-12-12-15-12-12-12--|
|--------------------------------------------------|
|--------------------------------------------------|
|
|  Q           Q           S  S  S  S  Q
|--------------------------------------------------|
|--------------------------------------------------|
|--------------------------------------------------|
|--------------------------------------------------|
|--------------------------0--0--0--0--0-----------|
|--------------------------0--0--0--0--0-----------|


   S  S  S  S  S  S  S  S  S  S  S  S  S  S  S  S
|-------------------------------------------------|
|-------------------------------------------------|
|-------------------------------------------------|
|-14-10-10-10-10-10-14-10-10-10-10-10-14-10-10-10-|
|-------------------------------------------------|
|-------------------------------------------------|
|
|  S  S  E     Q           Q           E     E
|-------------------------------------------------|
|-------------------------------------------------|
|-------------------------------------------------|
|-------------------------------------------------|
|--7--7--7-----------------------------7-----7----|
|--7--7--7-----------------------------7-----7----|


   S  S  S  S  S  S  S  S  S  S  S  S  S  S  S  S
|---------------------------------------------------|
|---------------------------------------------------|
|---------------------------------------------------|
|-14-10-10-10-10-10-14-10-10-10-10-10-14-10-10-10---|
|---------------------------------------------------|
|---------------------------------------------------|
|
|  Q           Q           S  S  S  S  Q
|---------------------------------------------------|
|---------------------------------------------------|
|---------------------------------------------------|
|---------------------------------------------------|
|--------------------------7--7--7--7--7------------|
|--------------------------7--7--7--7--7------------|


   S  S  S  S  S  S  S  S  S  S  S  S  S  S  S  S
|-------------------------------------------------|
|-------------------------------------------------|
|-------------------------------------------------|
|-15-12-12-12-12-12-15-12-12-12-12-12-15-12-12-12-|
|-------------------------------------------------|
|-------------------------------------------------|
|
|  S  S  E     Q           Q           E     E
|-------------------------------------------------|
|-------------------------------------------------|
|-------------------------------------------------|
|-------------------------------------------------|
|--8--8--8-----------------------------8-----8----|
|--8--8--8-----------------------------8-----8----|


   S  S  S  S  S  S  S  S  S  S  S  S  S  S  S  S
|---------------------------------------------------|
|---------------------------------------------------|
|---------------------------------------------------|
|-15-12-12-12-12-12-15-12-12-12-12-12-15-12-12-12---|
|---------------------------------------------------|
|---------------------------------------------------|
|
|  Q           Q           S  S  S  S  Q
|---------------------------------------------------|
|---------------------------------------------------|
|---------------------------------------------------|
|---------------------------------------------------|
|--------------------------8--8--8--8--8------------|
|--------------------------8--8--8--8--8------------|


  1.
   S  S  S  S  S  S  S  S  S  S  S  S  S  S  S  S
|-------------------------------------------------|
|-------------------------------------------------|
|-------------------------------------------------|
|-15-14-14-14-14-14-15-14-14-14-14-14-15-14-14-14-|
|-------------------------------------------------|
|-------------------------------------------------|
|
|  S  S  E     Q           Q           E     E
|-------------------------------------------------|
|-------------------------------------------------|
|-------------------------------------------------|
|-------------------------------------------------|
|--5--5--5-----------------------------5-----5----|
|--5--5--5-----------------------------5-----5----|


   S  S  S  S  S  S  S  S  S  S  S  S  S  S  S  S
|----------------------------------------------------||
|---------------------------------------------------o||
|----------------------------------------------------||
|-14-11-11-11-11-11-14-11-11-11-11-11-14-11-11-11----||
|---------------------------------------------------o||
|----------------------------------------------------||
|
|  Q           Q           S  S  S  S  Q
|----------------------------------------------------||
|---------------------------------------------------o||
|----------------------------------------------------||
|----------------------------------------------------||
|--------------------------7--7--7--7--7------------o||
|--------------------------7--7--7--7--7-------------||

WAH pedal would be nice here
  2.
                       |---3----|
   E  E  +H      E  E  Q    Q   Q   H
|----------------------------------------|
|----------------------------------------|
|----------------------------------------|
|-15-14-(14)----14-15-17---15--14--11----|
|----------------------------------------|
|----------------------------------------|
|
|  E  E  +H      E  E +W
|----------------------------------------|
|----------------------------------------|
|----------------------------------------|
|----------------------------------------|
|--5--5--(5)-----7--7-(7)----------------|
|--5--5--(5)-----7--7-(7)----------------|


   E  E  +H.       +H
|-------------------------|
|-------------------------|
|-------------------------|
|-15p12-(12)------(12)----|
|-------------------------|
|-------------------------|
|
|  W               +W
|-------------------------|
|-------------------------|
|-------------------------|
|-------------------------|
|--0---------------(0)----|
|--0---------------(0)----|


    E S S S S S S S S S S S S S S   S S S S S S E S S S S S S E
||--------------------------------|--------------------------------|
||o-------------------------------|--------------------------------|
||--------------------------------|--------------------------------|
||--------------------------------|--------------------------------|
||o-4-----------------------------|-------------1-------------3----|
||----0-0-0-0-3p0-0-0-0-0-3p1p0-0-|-1p0-0-0-0-0---0-0-0-0-0-0------|
|
|   E S S S S S S S S S S S S S S   S S S S S S E S S S S S S E
||--------------------------------|--------------------------------|
||o-------------------------------|--------------------------------|
||--------------------------------|--------------------------------|
||--------------------------------|--------------------------------|
||o-4-----------------------------|-------------1-------------3----|
||----0-0-0-0-3p0-0-0-0-0-3p1p0-0-|-1p0-0-0-0-0---0-0-0-0-0-0------|


  1.
  E S S S S S S S S S S S S S S   S S S S S S E S S S S S S E
|-------------------------------|---------------------------------||
|-------------------------------|--------------------------------o||
|-------------------------------|---------------------------------||
|-------------------------------|---------------------------------||
|-4-----------------------------|-------------1-------------3----o||
|---0-0-0-0-3p0-0-0-0-0-3p1p0-0-|-1p0-0-0-0-0---0-0-0-0-0-0-------||
|
| E S S S S S S S S S S S S S S   S S S S S S E S S S S S S E
|-------------------------------|---------------------------------||
|-------------------------------|--------------------------------o||
|-------------------------------|---------------------------------||
|-------------------------------|---------------------------------||
|-4-----------------------------|-------------1-------------3----o||
|---0-0-0-0-3p0-0-0-0-0-3p1p0-0-|-1p0-0-0-0-0---0-0-0-0-0-0-------||


  2.
  E S S S S S S S S S S S S S S   Q    E  H   E
|-------------------------------|------------------|
|-------------------------------|------------------|
|-------------------------------|------------------|
|-------------------------------|------------------|
|-4-----------------------------|-4----3--1---3----|
|---0-0-0-0-3p0-0-0-0-0-3p1p0-0-|-4----3--1--------|
|
| E S S S S S S S S S S S S S S   Q    E  H   E
|-------------------------------|------------------|
|-------------------------------|------------------|
|-------------------------------|------------------|
|-------------------------------|------------------|
|-4-----------------------------|-4----3--1---3----|
|---0-0-0-0-3p0-0-0-0-0-3p1p0-0-|-4----3--1--------|


    E S S S S S S S S S S S S S S   S S S S S S E S S S S S S E
||--------------------------------|--------------------------------|
||o-------------------------------|--------------------------------|
||--------------------------------|--------------------------------|
||--------------------------------|--------------------------------|
||o-4-----------------------------|-------------1-------------3----|
||----0-0-0-0-3p0-0-0-0-0-3p1p0-0-|-1p0-0-0-0-0---0-0-0-0-0-0------|
|
|   E S S S S S S S S S S S S S S   S S S S S S E S S S S S S E
||--------------------------------|--------------------------------|
||o-------------------------------|--------------------------------|
||--------------------------------|--------------------------------|
||--------------------------------|--------------------------------|
||o-4-----------------------------|-------------1-------------3----|
||----0-0-0-0-3p0-0-0-0-0-3p1p0-0-|-1p0-0-0-0-0---0-0-0-0-0-0------|


  1.
  E S S S S S S S S S S S S S S   S S S S S S E S S S S S S E
|-------------------------------|---------------------------------||
|-------------------------------|--------------------------------o||
|-------------------------------|---------------------------------||
|-------------------------------|---------------------------------||
|-4-----------------------------|-------------1-------------3----o||
|---0-0-0-0-3p0-0-0-0-0-3p1p0-0-|-1p0-0-0-0-0---0-0-0-0-0-0-------||
|
| E S S S S S S S S S S S S S S   S S S S S S E S S S S S S E
|-------------------------------|---------------------------------||
|-------------------------------|--------------------------------o||
|-------------------------------|---------------------------------||
|-------------------------------|---------------------------------||
|-4-----------------------------|-------------1-------------3----o||
|---0-0-0-0-3p0-0-0-0-0-3p1p0-0-|-1p0-0-0-0-0---0-0-0-0-0-0-------||


  2.
  E S S S S S S S S S S S S S S   Q    E  H    E
|-------------------------------|-------------------|
|-------------------------------|-------------------|
|-------------------------------|-------------------|
|-------------------------------|-------------------|
|-4-----------------------------|-4----3--1----5----|
|---0-0-0-0-3p0-0-0-0-0-3p1p0-0-|-4----3--1---------|
|
| E S S S S S S S S S S S S S S   Q    E  H    E
|-------------------------------|-------------------|
|-------------------------------|-------------------|
|-------------------------------|-------------------|
|-------------------------------|-------------------|
|-4-----------------------------|-4----3--1----8----|
|---0-0-0-0-3p0-0-0-0-0-3p1p0-0-|-4----3--1---------|


   E E E E E E E E  E E E E E E E E    E E E E E E E E  E E E E E E E E
|-----------------------------------|-------------------------------------|
|-----------------------------------|-------------------------------------|
|-----------------------------------|-------------------------------------|
|-----------------------------------|-------------------------------------|
|--8-----5----------8-----5---------|--8-----5----------8-----5-----------|
|----0-0---0-0-0-3----0-0---0-0-0-3-|----0-0---0-0-0-3----0-0---0-0-0-3---|
|
|  E E E E E E E E  E E E E E E E E    E E E E E E E E  E E E E E E E E
|-----------------------------------|-------------------------------------|
|-----------------------------------|-------------------------------------|
|-----------------------------------|-------------------------------------|
|-----------------------------------|-------------------------------------|
|-12-----8---------12-----8---------|-12-----5---------12-----8-----------|
|----0-0---0-0-0-3----0-0---0-0-0-3-|----0-0---0-0-0-3----0-0---0-0-0-3---|


   E E E E E E E E  E E E E E E E E    E E E E E E E E  E E E E E E E E
|-----------------------------------|-------------------------------------|
|-----------------------------------|-------------------------------------|
|-----------------------------------|-------------------------------------|
|-----------------------------------|-------------------------------------|
|--7-----3-----0-3--7-----3-----0-3-|--7-----3-----0-3--7-----3-----0-3---|
|----0-0---0-0--------0-0---0-0-----|----0-0---0-0--------0-0---0-0-------|
|
|  E E E E E E E E  E E E E E E E E    E E E E E E E E  E E E E E E E E
|-----------------------------------|-------------------------------------|
|-----------------------------------|-------------------------------------|
|-----------------------------------|-------------------------------------|
|-----------------------------------|-------------------------------------|
|-10-----7-----0-3-10-----7-----0-3-|-10-----7-----0-3-10-----7-----0-3---|
|----0-0---0-0--------0-0---0-0-----|----0-0---0-0--------0-0---0-0-------|


   E E E E E E E E  E E E E E E E E    E E E E E E E  E  E E E E E E  Q
|-----------------------------------|---------------------------------------|
|-----------------------------------|---------------------------------------|
|-----------------------------------|---------------------------------------|
|-----------------------------------|-12-----8-----8-12-10-----7-----[7]----|
|--8-----5----------8-----5---------|---------------------------------------|
|----0-0---0-0-0-3----0-0---0-0-0-3-|----8-8---8-8---------7-7---7-7--------|
|
|  E E E E E E E E  E E E E E E E E    E E E E E E E  E  E E E E E E  Q
|-----------------------------------|---------------------------------------|
|-----------------------------------|---------------------------------------|
|-----------------------------------|---------------------------------------|
|-----------------------------------|---------------------------------------|
|-12-----8---------12-----8---------|-12-----8-----8-12-10-----7-----[8]----|
|----0-0---0-0-0-3----0-0---0-0-0-3-|----8-8---8-8---------7-7---7-7--------|


   S  S  S  S  S  S  S  S  S  S  S  S  S  S  S  S
|-------------------------------------------------|
|-------------------------------------------------|
|-------------------------------------------------|
|-15-12-12-12-12-12-15-12-12-12-12-12-15-12-12-12-|
|-------------------------------------------------|
|-------------------------------------------------|
|
|  S  S  E     Q           Q           E     E
|-------------------------------------------------|
|-------------------------------------------------|
|-------------------------------------------------|
|-------------------------------------------------|
|--0--0--0-----------------------------0-----0----|
|--0--0--0-----------------------------0-----0----|


   S  S  S  S  S  S  S  S  S  S  S  S  S  S  S  S
|---------------------------------------------------|
|---------------------------------------------------|
|---------------------------------------------------|
|-15-12-12-12-12-12-15-12-12-12-12-12-15-12-12-12---|
|---------------------------------------------------|
|---------------------------------------------------|
|
|  Q           Q           S  S  S  S  Q
|---------------------------------------------------|
|---------------------------------------------------|
|---------------------------------------------------|
|---------------------------------------------------|
|--------------------------0--0--0--0--0------------|
|--------------------------0--0--0--0--0------------|


   S  S  S  S  S  S  S  S  S  S  S  S  S  S  S  S
|-------------------------------------------------|
|-------------------------------------------------|
|-------------------------------------------------|
|-14-10-10-10-10-10-14-10-10-10-10-10-14-10-10-10-|
|-------------------------------------------------|
|-------------------------------------------------|
|
|  S  S  E     Q           Q           E     E
|-------------------------------------------------|
|-------------------------------------------------|
|-------------------------------------------------|
|-------------------------------------------------|
|--7--7--7-----------------------------7-----7----|
|--7--7--7-----------------------------7-----7----|


   S  S  S  S  S  S  S  S  S  S  S  S  S  S  S  S
|---------------------------------------------------|
|---------------------------------------------------|
|---------------------------------------------------|
|-14-10-10-10-10-10-14-10-10-10-10-10-14-10-10-10---|
|---------------------------------------------------|
|---------------------------------------------------|
|
|  Q           Q           S  S  S  S  Q
|---------------------------------------------------|
|---------------------------------------------------|
|---------------------------------------------------|
|---------------------------------------------------|
|--------------------------7--7--7--7--7------------|
|--------------------------7--7--7--7--7------------|


   S  S  S  S  S  S  S  S  S  S  S  S  S  S  S  S
|-------------------------------------------------|
|-------------------------------------------------|
|-------------------------------------------------|
|-15-12-12-12-12-12-15-12-12-12-12-12-15-12-12-12-|
|-------------------------------------------------|
|-------------------------------------------------|
|
|  S  S  E     Q           Q           E     E
|-------------------------------------------------|
|-------------------------------------------------|
|-------------------------------------------------|
|-------------------------------------------------|
|--8--8--8-----------------------------8-----8----|
|--8--8--8-----------------------------8-----8----|


   S  S  S  S  S  S  S  S  S  S  S  S  S  S  S  S
|---------------------------------------------------|
|---------------------------------------------------|
|---------------------------------------------------|
|-15-12-12-12-12-12-15-12-12-12-12-12-15-12-12-12---|
|---------------------------------------------------|
|---------------------------------------------------|
|
|  Q           Q           S  S  S  S  Q
|---------------------------------------------------|
|---------------------------------------------------|
|---------------------------------------------------|
|---------------------------------------------------|
|--------------------------8--8--8--8--8------------|
|--------------------------8--8--8--8--8------------|


   S  S  S  S  S   S  S  S  S  S  S  S  S  S  S  S
|--------------------------------------------------|
|--------------------------------------------------|
|--------------------------------------------------|
|-15-14-14-14-14--14-15-14-14-14-14-14-15-14-14-14-|
|--------------------------------------------------|
|--------------------------------------------------|
|
|  E     E    +H                        E     E
|--------------------------------------------------|
|--------------------------------------------------|
|--------------------------------------------------|
|--------------------------------------------------|
|--5-----5----(5)-----------------------7-----7----|
|--5-----5----(5)-----------------------7-----7----|


   S   S  S  S  S  S  S  S  S  S  S  S  S  S  S  S
|----------------------------------------------------|
|----------------------------------------------------|
|----------------------------------------------------|
|-14--11-11-11-11-11-14-11-11-11-11-11-14-11-11-11---|
|----------------------------------------------------|
|----------------------------------------------------|
|
| +W
|----------------------------------------------------|
|----------------------------------------------------|
|----------------------------------------------------|
|----------------------------------------------------|
|-(7)------------------------------------------------|
|-(7)------------------------------------------------|


   S  S  S  S  S  S  S  S  S  S  S  S  S  S  S  S
|-------------------------------------------------|
|-------------------------------------------------|
|-------------------------------------------------|
|-15-12-12-12-12-12-15-12-12-12-12-12-15-12-12-12-|
|-------------------------------------------------|
|-------------------------------------------------|
|
|        PM---|            PM---|            PM
|  E     E     E     E     E     E     E     E
|-------------------------------------------------|
|-------------------------------------------------|
|-------------------------------------------------|
|-------------------------------------------------|
|--0-----0-----0-----0-----0-----0-----0-----0----|
|--0-----0-----0-----0-----0-----0-----0-----0----|


   S  S  S  S  S  S  S  S  S  S  S  S  S  S  S  S
|---------------------------------------------------|
|---------------------------------------------------|
|---------------------------------------------------|
|-15-12-12-12-12-12-15-12-12-12-12-12-15-12-12-12---|
|---------------------------------------------------|
|---------------------------------------------------|
|
|        PM---|            PM---|            PM
|  E     E     E     E     E     E     E     E
|---------------------------------------------------|
|---------------------------------------------------|
|---------------------------------------------------|
|---------------------------------------------------|
|--0-----0-----0-----0-----0-----0-----0-----0------|
|--0-----0-----0-----0-----0-----0-----0-----0------|


   S  S  S  S  S  S  S  S  S  S  S  S  S  S  S  S
|-------------------------------------------------|
|-------------------------------------------------|
|-------------------------------------------------|
|-14-10-10-10-10-10-14-10-10-10-10-10-14-10-10-10-|
|-------------------------------------------------|
|-------------------------------------------------|
|
|        PM---|            PM---|            PM
|  E     E     E     E     E     E     E     E
|-------------------------------------------------|
|-------------------------------------------------|
|-------------------------------------------------|
|-------------------------------------------------|
|--7-----7-----7-----7-----7-----7-----7-----7----|
|--7-----7-----7-----7-----7-----7-----7-----7----|


   S  S  S  S  S  S  S  S  S  S  S  S  S  S  S  S
|---------------------------------------------------|
|---------------------------------------------------|
|---------------------------------------------------|
|-14-10-10-10-10-10-14-10-10-10-10-10-14-10-10-10---|
|---------------------------------------------------|
|---------------------------------------------------|
|
|        PM---|            PM---|            PM
|  E     E     E     E     E     E     E     E
|---------------------------------------------------|
|---------------------------------------------------|
|---------------------------------------------------|
|---------------------------------------------------|
|--7-----7-----7-----7-----7-----7-----7-----7------|
|--7-----7-----7-----7-----7-----7-----7-----7------|


   S  S  S  S  S  S  S  S  S  S  S  S  S  S  S  S
|-------------------------------------------------|
|-------------------------------------------------|
|-------------------------------------------------|
|-15-12-12-12-12-12-15-12-12-12-12-12-15-12-12-12-|
|-------------------------------------------------|
|-------------------------------------------------|
|
|        PM---|            PM---|            PM
|  E     E     E     E     E     E     E     E
|-------------------------------------------------|
|-------------------------------------------------|
|-------------------------------------------------|
|-------------------------------------------------|
|--8-----8-----8-----8-----8-----8-----8-----8----|
|--8-----8-----8-----8-----8-----8-----8-----8----|


   S  S  S  S  S  S  S  S  S  S  S  S  S  S  S  S
|---------------------------------------------------|
|---------------------------------------------------|
|---------------------------------------------------|
|-15-12-12-12-12-12-15-12-12-12-12-12-15-12-12-12---|
|---------------------------------------------------|
|---------------------------------------------------|
|
|        PM---|            PM---|            PM
|  E     E     E     E     E     E     E     E
|---------------------------------------------------|
|---------------------------------------------------|
|---------------------------------------------------|
|---------------------------------------------------|
|--8-----8-----8-----8-----8-----8-----8-----8------|
|--8-----8-----8-----8-----8-----8-----8-----8------|


   S  S  S  S  S  S  S  S  S  S  S  S  S  S  S  S
|-------------------------------------------------|
|-------------------------------------------------|
|-------------------------------------------------|
|-15-14-14-14-14-14-15-14-14-14-14-14-15-14-14-14-|
|-------------------------------------------------|
|-------------------------------------------------|
|
|        PM---|            PM---|            PM
|  E     E     E     E     E     E     E     E
|-------------------------------------------------|
|-------------------------------------------------|
|-------------------------------------------------|
|-------------------------------------------------|
|--5-----5-----5-----5-----5-----5-----5-----5----|
|--5-----5-----5-----5-----5-----5-----5-----5----|


   S  S  S  S  S  S  S  S  S  S  S  S  S  S  S  S
|---------------------------------------------------|
|---------------------------------------------------|
|---------------------------------------------------|
|-14-11-11-11-11-11-14-11-11-11-11-11-14-11-11-11---|
|---------------------------------------------------|
|---------------------------------------------------|
|
|        PM---|            PM---|            PM
|  E     E     E     E     E     E     E     E
|---------------------------------------------------|
|---------------------------------------------------|
|---------------------------------------------------|
|---------------------------------------------------|
|--7-----7-----7-----7-----7-----7-----7-----7------|
|--7-----7-----7-----7-----7-----7-----7-----7------|

Lead break
                              |---3----|
   H.       E  H         +E   Q   Q    Q   H.          E  H.       +E
|------------------------------------------------------------------------|
|--------------------------------------------------------13-------(13)---|
|-14----------------------------------14--15----------12-----------------|
|----------15-12--------(12)-12--15--------------------------------------|
|------------------------------------------------------------------------|
|------------------------------------------------------------------------|
|
|  W             +W                 W             +W
|------------------------------------------------------------------------|
|------------------------------------------------------------------------|
|------------------------------------------------------------------------|
|--7-------------(7)----------------8-------------(8)--------------------|
|--5-------------(5)----------------8-------------(8)--------------------|
|--0-------------(0)----------------8-------------(8)--------------------|


                                             |-------3--------|
   E  E  E  E  E  E  E  E  E   E  E  E  H    Q    Q   Q   Q   Q     W
|-----------------------------------------------------------------------------------------------------|
|-13-------13-------13--------13-------13---15---13--11--10--11---[17]b18r============================|
|----14-------14-------14--------14-------------------------------------------------------------------|
|-------15-------15-------15--------15----------------------------------------------------------------|
|-----------------------------------------------------------------------------------------------------|
|-----------------------------------------------------------------------------------------------------|
|
|  W                      +W                   W                S   S     S S S S S S S S S S S S  E
|-----------------------------------------------------------------------------------------------------|
|-----------------------------------------------------------------------------------------------------|
|-----------------------------------------------------------------------------------------------------|
|--3----------------------(3)------------------1------------------------------------------------------|
|--3----------------------(3)------------------1------------------------------------------------------|
|--3----------------------(3)------------------1----------------1---1-----3-3-3-3-1-1-1-1-3-3-3-3-[3]-|


    E S S S S S S S S S S S S S S   S S S S S S E S S S S S S E
||--------------------------------|--------------------------------|
||o-------------------------------|--------------------------------|
||--------------------------------|--------------------------------|
||--------------------------------|--------------------------------|
||o-4-----------------------------|-------------1-------------3----|
||----0-0-0-0-3p0-0-0-0-0-3p1p0-0-|-1p0-0-0-0-0---0-0-0-0-0-0------|
|
|   E S S S S S S S S S S S S S S   S S S S S S E S S S S S S E
||--------------------------------|--------------------------------|
||o-------------------------------|--------------------------------|
||--------------------------------|--------------------------------|
||--------------------------------|--------------------------------|
||o-4-----------------------------|-------------1-------------3----|
||----0-0-0-0-3p0-0-0-0-0-3p1p0-0-|-1p0-0-0-0-0---0-0-0-0-0-0------|


  1.
  E S S S S S S S S S S S S S S   S S S S S S E S S S S S S E
|-------------------------------|---------------------------------||
|-------------------------------|--------------------------------o||
|-------------------------------|---------------------------------||
|-------------------------------|---------------------------------||
|-4-----------------------------|-------------1-------------3----o||
|---0-0-0-0-3p0-0-0-0-0-3p1p0-0-|-1p0-0-0-0-0---0-0-0-0-0-0-------||
|
| E S S S S S S S S S S S S S S   S S S S S S E S S S S S S E
|-------------------------------|---------------------------------||
|-------------------------------|--------------------------------o||
|-------------------------------|---------------------------------||
|-------------------------------|---------------------------------||
|-4-----------------------------|-------------1-------------3----o||
|---0-0-0-0-3p0-0-0-0-0-3p1p0-0-|-1p0-0-0-0-0---0-0-0-0-0-0-------||


  2.
  E S S S S S S S S S S S S S S   Q  E H    E
|-------------------------------|----------------|
|-------------------------------|----------------|
|-------------------------------|----------------|
|-------------------------------|----------------|
|-4-----------------------------|-4--3-1----3----|
|---0-0-0-0-3p0-0-0-0-0-3p1p0-0-|-4--3-1---------|
|
| E S S S S S S S S S S S S S S   Q  E H    E
|-------------------------------|----------------|
|-------------------------------|----------------|
|-------------------------------|----------------|
|-------------------------------|----------------|
|-4-----------------------------|-4--3-1----3----|
|---0-0-0-0-3p0-0-0-0-0-3p1p0-0-|-4--3-1---------|


    E S S S S S S S S S S S S S S   S S S S S S E S S S S S S E
||--------------------------------|--------------------------------|
||o-------------------------------|--------------------------------|
||--------------------------------|--------------------------------|
||--------------------------------|--------------------------------|
||o-4-----------------------------|-------------1-------------3----|
||----0-0-0-0-3p0-0-0-0-0-3p1p0-0-|-1p0-0-0-0-0---0-0-0-0-0-0------|
|
|   E S S S S S S S S S S S S S S   S S S S S S E S S S S S S E
||--------------------------------|--------------------------------|
||o-------------------------------|--------------------------------|
||--------------------------------|--------------------------------|
||--------------------------------|--------------------------------|
||o-4-----------------------------|-------------1-------------3----|
||----0-0-0-0-3p0-0-0-0-0-3p1p0-0-|-1p0-0-0-0-0---0-0-0-0-0-0------|


  1.
  E S S S S S S S S S S S S S S   S S S S S S E S S S S S S E
|-------------------------------|---------------------------------||
|-------------------------------|--------------------------------o||
|-------------------------------|---------------------------------||
|-------------------------------|---------------------------------||
|-4-----------------------------|-------------1-------------3----o||
|---0-0-0-0-3p0-0-0-0-0-3p1p0-0-|-1p0-0-0-0-0---0-0-0-0-0-0-------||
|
| E S S S S S S S S S S S S S S   S S S S S S E S S S S S S E
|-------------------------------|---------------------------------||
|-------------------------------|--------------------------------o||
|-------------------------------|---------------------------------||
|-------------------------------|---------------------------------||
|-4-----------------------------|-------------1-------------3----o||
|---0-0-0-0-3p0-0-0-0-0-3p1p0-0-|-1p0-0-0-0-0---0-0-0-0-0-0-------||


  2.
  E S S S S S S S S S S S S S S   W        +W
|-------------------------------|-----------------|
|-------------------------------|-----------------|
|-------------------------------|-----------------|
|-------------------------------|-----------------|
|-4-----------------------------|-0--------(0)----|
|---0-0-0-0-3p0-0-0-0-0-3p1p0-0-|-0--------(0)----|
|
| E S S S S S S S S S S S S S S   W        +W
|-------------------------------|-----------------|
|-------------------------------|-----------------|
|-------------------------------|-----------------|
|-------------------------------|-----------------|
|-4-----------------------------|-0--------(0)----|
|---0-0-0-0-3p0-0-0-0-0-3p1p0-0-|-0--------(0)----|


   S  S  S  S  S  S  S  S  S  S  S  S  S  S  S  S
|-------------------------------------------------|
|-------------------------------------------------|
|-------------------------------------------------|
|-15-12-12-12-12-12-15-12-12-12-12-12-15-12-12-12-|
|-------------------------------------------------|
|-------------------------------------------------|
|
|  S  S  E     Q           Q           E     E
|-------------------------------------------------|
|-------------------------------------------------|
|-------------------------------------------------|
|-------------------------------------------------|
|--0--0--0-----------------------------0-----0----|
|--0--0--0-----------------------------0-----0----|


   S  S  S  S  S  S  S  S  S  S  S  S  S  S  S  S
|---------------------------------------------------|
|---------------------------------------------------|
|---------------------------------------------------|
|-15-12-12-12-12-12-15-12-12-12-12-12-15-12-12-12---|
|---------------------------------------------------|
|---------------------------------------------------|
|
|  Q           Q           S  S  S  S  Q
|---------------------------------------------------|
|---------------------------------------------------|
|---------------------------------------------------|
|---------------------------------------------------|
|--------------------------0--0--0--0--0------------|
|--------------------------0--0--0--0--0------------|


   S  S  S  S  S  S  S  S  S  S  S  S  S  S  S  S
|-------------------------------------------------|
|-------------------------------------------------|
|-------------------------------------------------|
|-14-10-10-10-10-10-14-10-10-10-10-10-14-10-10-10-|
|-------------------------------------------------|
|-------------------------------------------------|
|
|  S  S  E     Q           Q           E     E
|-------------------------------------------------|
|-------------------------------------------------|
|-------------------------------------------------|
|-------------------------------------------------|
|--7--7--7-----------------------------7-----7----|
|--7--7--7-----------------------------7-----7----|


   S  S  S  S  S  S  S  S  S  S  S  S  S  S  S  S
|---------------------------------------------------|
|---------------------------------------------------|
|---------------------------------------------------|
|-14-10-10-10-10-10-14-10-10-10-10-10-14-10-10-10---|
|---------------------------------------------------|
|---------------------------------------------------|
|
|  Q           Q           S  S  S  S  Q
|---------------------------------------------------|
|---------------------------------------------------|
|---------------------------------------------------|
|---------------------------------------------------|
|--------------------------7--7--7--7--7------------|
|--------------------------7--7--7--7--7------------|


   S  S  S  S  S  S  S  S  S  S  S  S  S  S  S  S
|-------------------------------------------------|
|-------------------------------------------------|
|-------------------------------------------------|
|-15-12-12-12-12-12-15-12-12-12-12-12-15-12-12-12-|
|-------------------------------------------------|
|-------------------------------------------------|
|
|  S  S  E     Q           Q           E     E
|-------------------------------------------------|
|-------------------------------------------------|
|-------------------------------------------------|
|-------------------------------------------------|
|--8--8--8-----------------------------8-----8----|
|--8--8--8-----------------------------8-----8----|


   S  S  S  S  S  S  S  S  S  S  S  S  S  S  S  S
|---------------------------------------------------|
|---------------------------------------------------|
|---------------------------------------------------|
|-15-12-12-12-12-12-15-12-12-12-12-12-15-12-12-12---|
|---------------------------------------------------|
|---------------------------------------------------|
|
|  Q           Q           S  S  S  S  Q
|---------------------------------------------------|
|---------------------------------------------------|
|---------------------------------------------------|
|---------------------------------------------------|
|--------------------------8--8--8--8--8------------|
|--------------------------8--8--8--8--8------------|


   S  S  S  S  S   S  S  S  S  S  S  S  S  S  S  S
|--------------------------------------------------|
|--------------------------------------------------|
|--------------------------------------------------|
|-15-14-14-14-14--14-15-14-14-14-14-14-15-14-14-14-|
|--------------------------------------------------|
|--------------------------------------------------|
|
|  E     E    +H                        E     E
|--------------------------------------------------|
|--------------------------------------------------|
|--------------------------------------------------|
|--------------------------------------------------|
|--5-----5----(5)-----------------------7-----7----|
|--5-----5----(5)-----------------------7-----7----|


   S   S  S  S  S  S  S  S  S  S  S  S  S  S  S  S
|----------------------------------------------------|
|----------------------------------------------------|
|----------------------------------------------------|
|-14--11-11-11-11-11-14-11-11-11-11-11-14-11-11-11---|
|----------------------------------------------------|
|----------------------------------------------------|
|
| +W
|----------------------------------------------------|
|----------------------------------------------------|
|----------------------------------------------------|
|----------------------------------------------------|
|-(7)------------------------------------------------|
|-(7)------------------------------------------------|


   S  S  S  S  S  S  S  S  S  S  S  S  S  S  S  S
|-------------------------------------------------|
|-------------------------------------------------|
|-------------------------------------------------|
|-15-12-12-12-12-12-15-12-12-12-12-12-15-12-12-12-|
|-------------------------------------------------|
|-------------------------------------------------|
|
|        PM---|            PM---|            PM
|  E     E     E     E     E     E     E     E
|-------------------------------------------------|
|-------------------------------------------------|
|-------------------------------------------------|
|-------------------------------------------------|
|--0-----0-----0-----0-----0-----0-----0-----0----|
|--0-----0-----0-----0-----0-----0-----0-----0----|


   S  S  S  S  S  S  S  S  S  S  S  S  S  S  S  S
|---------------------------------------------------|
|---------------------------------------------------|
|---------------------------------------------------|
|-15-12-12-12-12-12-15-12-12-12-12-12-15-12-12-12---|
|---------------------------------------------------|
|---------------------------------------------------|
|
|        PM---|            PM---|            PM
|  E     E     E     E     E     E     E     E
|---------------------------------------------------|
|---------------------------------------------------|
|---------------------------------------------------|
|---------------------------------------------------|
|--0-----0-----0-----0-----0-----0-----0-----0------|
|--0-----0-----0-----0-----0-----0-----0-----0------|


   S  S  S  S  S  S  S  S  S  S  S  S  S  S  S  S
|-------------------------------------------------|
|-------------------------------------------------|
|-------------------------------------------------|
|-14-10-10-10-10-10-14-10-10-10-10-10-14-10-10-10-|
|-------------------------------------------------|
|-------------------------------------------------|
|
|        PM---|            PM---|            PM
|  E     E     E     E     E     E     E     E
|-------------------------------------------------|
|-------------------------------------------------|
|-------------------------------------------------|
|-------------------------------------------------|
|--7-----7-----7-----7-----7-----7-----7-----7----|
|--7-----7-----7-----7-----7-----7-----7-----7----|


   S  S  S  S  S  S  S  S  S  S  S  S  S  S  S  S
|---------------------------------------------------|
|---------------------------------------------------|
|---------------------------------------------------|
|-14-10-10-10-10-10-14-10-10-10-10-10-14-10-10-10---|
|---------------------------------------------------|
|---------------------------------------------------|
|
|        PM---|            PM---|            PM
|  E     E     E     E     E     E     E     E
|---------------------------------------------------|
|---------------------------------------------------|
|---------------------------------------------------|
|---------------------------------------------------|
|--7-----7-----7-----7-----7-----7-----7-----7------|
|--7-----7-----7-----7-----7-----7-----7-----7------|


   S  S  S  S  S  S  S  S  S  S  S  S  S  S  S  S
|-------------------------------------------------|
|-------------------------------------------------|
|-------------------------------------------------|
|-15-12-12-12-12-12-15-12-12-12-12-12-15-12-12-12-|
|-------------------------------------------------|
|-------------------------------------------------|
|
|        PM---|            PM---|            PM
|  E     E     E     E     E     E     E     E
|-------------------------------------------------|
|-------------------------------------------------|
|-------------------------------------------------|
|-------------------------------------------------|
|--8-----8-----8-----8-----8-----8-----8-----8----|
|--8-----8-----8-----8-----8-----8-----8-----8----|


   S  S  S  S  S  S  S  S  S  S  S  S  S  S  S  S
|---------------------------------------------------|
|---------------------------------------------------|
|---------------------------------------------------|
|-15-12-12-12-12-12-15-12-12-12-12-12-15-12-12-12---|
|---------------------------------------------------|
|---------------------------------------------------|
|
|        PM---|            PM---|            PM
|  E     E     E     E     E     E     E     E
|---------------------------------------------------|
|---------------------------------------------------|
|---------------------------------------------------|
|---------------------------------------------------|
|--8-----8-----8-----8-----8-----8-----8-----8------|
|--8-----8-----8-----8-----8-----8-----8-----8------|


   S  S  S  S  S  S  S  S  S  S  S  S  S  S  S  S
|-------------------------------------------------|
|-------------------------------------------------|
|-------------------------------------------------|
|-15-14-14-14-14-14-15-14-14-14-14-14-15-14-14-14-|
|-------------------------------------------------|
|-------------------------------------------------|
|
|        PM---|            PM---|            PM
|  E     E     E     E     E     E     E     E
|-------------------------------------------------|
|-------------------------------------------------|
|-------------------------------------------------|
|-------------------------------------------------|
|--5-----5-----5-----5-----5-----5-----5-----5----|
|--5-----5-----5-----5-----5-----5-----5-----5----|


   S  S  S  S  S  S  S  S  S  S  S  S  S  S  S  S
|---------------------------------------------------|
|---------------------------------------------------|
|---------------------------------------------------|
|-14-11-11-11-11-11-14-11-11-11-11-11-14-11-11-11---|
|---------------------------------------------------|
|---------------------------------------------------|
|
|        PM---|            PM---|            PM
|  E     E     E     E     E     E     E     E
|---------------------------------------------------|
|---------------------------------------------------|
|---------------------------------------------------|
|---------------------------------------------------|
|--7-----7-----7-----7-----7-----7-----7-----7------|
|--7-----7-----7-----7-----7-----7-----7-----7------|


   S  S  S  S  S  S  S  S  S  S  S  S  S  S  S  S
|-------------------------------------------------|
|-------------------------------------------------|
|-------------------------------------------------|
|-15-12-12-12-12-12-15-12-12-12-12-12-15-12-12-12-|
|-------------------------------------------------|
|-------------------------------------------------|
|
|        PM---|            PM---|            PM
|  E     E     E     E     E     E     E     E
|-------------------------------------------------|
|-------------------------------------------------|
|-------------------------------------------------|
|-------------------------------------------------|
|--0-----0-----0-----0-----0-----0-----0-----0----|
|--0-----0-----0-----0-----0-----0-----0-----0----|
|
| Gtr III
|  S  S  S  S  S  S  S  S  S  S  S  S  S  S  S  S
|-------------------------------------------------|
|-------------------------------------------------|
|-------------------------------------------------|
|-19-15-15-15-15-15-19-15-15-15-15-15-19-15-15-15-|
|-------------------------------------------------|
|-------------------------------------------------|


   S  S  S  S  S  S  S  S  S  S  S  S  S  S  S  S
|---------------------------------------------------|
|---------------------------------------------------|
|---------------------------------------------------|
|-15-12-12-12-12-12-15-12-12-12-12-12-15-12-12-12---|
|---------------------------------------------------|
|---------------------------------------------------|
|
|        PM---|            PM---|            PM
|  E     E     E     E     E     E     E     E
|---------------------------------------------------|
|---------------------------------------------------|
|---------------------------------------------------|
|---------------------------------------------------|
|--0-----0-----0-----0-----0-----0-----0-----0------|
|--0-----0-----0-----0-----0-----0-----0-----0------|
|
|  S  S  S  S  S  S  S  S  S  S  S  S  S  S  S  S
|---------------------------------------------------|
|---------------------------------------------------|
|---------------------------------------------------|
|-19-15-15-15-15-15-19-15-15-15-15-15-19-15-15-15---|
|---------------------------------------------------|
|---------------------------------------------------|


   S  S  S  S  S  S  S  S  S  S  S  S  S  S  S  S
|-------------------------------------------------|
|-------------------------------------------------|
|-------------------------------------------------|
|-14-10-10-10-10-10-14-10-10-10-10-10-14-10-10-10-|
|-------------------------------------------------|
|-------------------------------------------------|
|
|        PM---|            PM---|            PM
|  E     E     E     E     E     E     E     E
|-------------------------------------------------|
|-------------------------------------------------|
|-------------------------------------------------|
|-------------------------------------------------|
|--7-----7-----7-----7-----7-----7-----7-----7----|
|--7-----7-----7-----7-----7-----7-----7-----7----|
|
|  S  S  S  S  S  S  S  S  S  S  S  S  S  S  S  S
|-------------------------------------------------|
|-------------------------------------------------|
|-------------------------------------------------|
|-17-14-14-14-14-14-17-14-14-14-14-14-17-14-14-14-|
|-------------------------------------------------|
|-------------------------------------------------|


   S  S  S  S  S  S  S  S  S  S  S  S  S  S  S  S
|---------------------------------------------------|
|---------------------------------------------------|
|---------------------------------------------------|
|-14-10-10-10-10-10-14-10-10-10-10-10-14-10-10-10---|
|---------------------------------------------------|
|---------------------------------------------------|
|
|        PM---|            PM---|            PM
|  E     E     E     E     E     E     E     E
|---------------------------------------------------|
|---------------------------------------------------|
|---------------------------------------------------|
|---------------------------------------------------|
|--7-----7-----7-----7-----7-----7-----7-----7------|
|--7-----7-----7-----7-----7-----7-----7-----7------|
|
|  S  S  S  S  S  S  S  S  S  S  S  S  S  S  S  S
|---------------------------------------------------|
|---------------------------------------------------|
|---------------------------------------------------|
|-17-14-14-14-14-14-17-14-14-14-14-14-17-14-14-14---|
|---------------------------------------------------|
|---------------------------------------------------|


   S  S  S  S  S  S  S  S  S  S  S  S  S  S  S  S
|-------------------------------------------------|
|-------------------------------------------------|
|-------------------------------------------------|
|-15-12-12-12-12-12-15-12-12-12-12-12-15-12-12-12-|
|-------------------------------------------------|
|-------------------------------------------------|
|
|        PM---|            PM---|            PM
|  E     E     E     E     E     E     E     E
|-------------------------------------------------|
|-------------------------------------------------|
|-------------------------------------------------|
|-------------------------------------------------|
|--8-----8-----8-----8-----8-----8-----8-----8----|
|--8-----8-----8-----8-----8-----8-----8-----8----|
|
|  S  S  S  S  S  S  S  S  S  S  S  S  S  S  S  S
|-------------------------------------------------|
|-------------------------------------------------|
|-------------------------------------------------|
|-20-20-20-20-20-20-20-20-20-20-20-20-20-20-20-20-|
|-------------------------------------------------|
|-------------------------------------------------|


   S  S  S  S  S  S  S  S  S  S  S  S  S  S  S  S
|---------------------------------------------------|
|---------------------------------------------------|
|---------------------------------------------------|
|-15-12-12-12-12-12-15-12-12-12-12-12-15-12-12-12---|
|---------------------------------------------------|
|---------------------------------------------------|
|
|        PM---|            PM---|            PM
|  E     E     E     E     E     E     E     E
|---------------------------------------------------|
|---------------------------------------------------|
|---------------------------------------------------|
|---------------------------------------------------|
|--8-----8-----8-----8-----8-----8-----8-----8------|
|--8-----8-----8-----8-----8-----8-----8-----8------|
|
|  S  S  S  S  S  S  S  S  S  S  S  S  S  S  S  S
|---------------------------------------------------|
|---------------------------------------------------|
|---------------------------------------------------|
|-20-20-20-20-20-20-20-20-20-20-20-20-20-20-20-20---|
|---------------------------------------------------|
|---------------------------------------------------|


   S  S  S  S  S  S  S  S  S  S  S  S  S  S  S  S
|-------------------------------------------------|
|-------------------------------------------------|
|-------------------------------------------------|
|-15-14-14-14-14-14-15-14-14-14-14-14-15-14-14-14-|
|-------------------------------------------------|
|-------------------------------------------------|
|
|        PM---|            PM---|            PM
|  E     E     E     E     E     E     E     E
|-------------------------------------------------|
|-------------------------------------------------|
|-------------------------------------------------|
|-------------------------------------------------|
|--5-----5-----5-----5-----5-----5-----5-----5----|
|--5-----5-----5-----5-----5-----5-----5-----5----|
|
|  S  S  S  S  S  S  S  S  S  S  S  S  S  S  S  S
|-------------------------------------------------|
|-------------------------------------------------|
|-------------------------------------------------|
|-22-20-20-20-20-20-22-20-20-20-20-20-22-20-20-20-|
|-------------------------------------------------|
|-------------------------------------------------|


   S  S  S  S  S  S  S  S  S  S  S  S  S  S  S  S
|---------------------------------------------------|
|---------------------------------------------------|
|---------------------------------------------------|
|-14-11-11-11-11-11-14-11-11-11-11-11-14-11-11-11---|
|---------------------------------------------------|
|---------------------------------------------------|
|
|        PM---|            PM---|            PM
|  E     E     E     E     E     E     E     E
|---------------------------------------------------|
|---------------------------------------------------|
|---------------------------------------------------|
|---------------------------------------------------|
|--7-----7-----7-----7-----7-----7-----7-----7------|
|--7-----7-----7-----7-----7-----7-----7-----7------|
|
|  S  S  S  S  S  S  S  S  S  S  S  S  S  S  S  S
|---------------------------------------------------|
|---------------------------------------------------|
|---------------------------------------------------|
|-20-19-19-19-19-19-20-19-19-19-19-19-20-19-19-19---|
|---------------------------------------------------|
|---------------------------------------------------|


     E E E E E E E E  E E E E E E E E    E E E E E E E E  E E E E E E E E
||------------------------------------|------------------------------------|
||o-----------------------------------|------------------------------------|
||------------------------------------|------------------------------------|
||------------------------------------|------------------------------------|
||o--8-----5----------8-----5---------|--8-----5----------8-----5----------|
||-----0-0---0-0-0-3----0-0---0-0-0-3-|----0-0---0-0-0-3----0-0---0-0-0-3--|
|
|    E E E E E E E E  E E E E E E E E    E E E E E E E E  E E E E E E E E
||------------------------------------|------------------------------------|
||o-----------------------------------|------------------------------------|
||------------------------------------|------------------------------------|
||------------------------------------|------------------------------------|
||o-12-----8---------12-----8---------|-12-----5---------12-----8----------|
||-----0-0---0-0-0-3----0-0---0-0-0-3-|----0-0---0-0-0-3----0-0---0-0-0-3--|


   E E E E E E E E  E E E E E E E E    E E E E E E E E  E E E E E E E E
|-----------------------------------|-------------------------------------|
|-----------------------------------|-------------------------------------|
|-----------------------------------|-------------------------------------|
|-----------------------------------|-------------------------------------|
|--7-----3-----0-3--7-----3-----0-3-|--7-----3-----0-3--7-----3-----0-3---|
|----0-0---0-0--------0-0---0-0-----|----0-0---0-0--------0-0---0-0-------|
|
|  E E E E E E E E  E E E E E E E E    E E E E E E E E  E E E E E E E E
|-----------------------------------|-------------------------------------|
|-----------------------------------|-------------------------------------|
|-----------------------------------|-------------------------------------|
|-----------------------------------|-------------------------------------|
|-10-----7-----0-3-10-----7-----0-3-|-10-----7-----0-3-10-----7-----0-3---|
|----0-0---0-0--------0-0---0-0-----|----0-0---0-0--------0-0---0-0-------|


  1.
   E E E E E E E E  E E E E E E E E    E E E E E E E  E  E E E E E E  Q
|-----------------------------------|----------------------------------------||
|-----------------------------------|---------------------------------------o||
|-----------------------------------|----------------------------------------||
|-----------------------------------|-12-----8-----8-12-10-----7-----[7]-----||
|--8-----5----------8-----5---------|---------------------------------------o||
|----0-0---0-0-0-3----0-0---0-0-0-3-|----8-8---8-8---------7-7---7-7---------||
|
|  E E E E E E E E  E E E E E E E E    E E E E E E E  E  E E E E E E  Q
|-----------------------------------|----------------------------------------||
|-----------------------------------|---------------------------------------o||
|-----------------------------------|----------------------------------------||
|-----------------------------------|----------------------------------------||
|-12-----8---------12-----8---------|-12-----8-----8-12-10-----7-----[8]----o||
|----0-0---0-0-0-3----0-0---0-0-0-3-|----8-8---8-8---------7-7---7-7---------||


  2.
   E E E E E E E E  E E E E E E E E    E E E E E E E  E  E E E E E E  E  E
|-----------------------------------|----------------------------------------|
|-----------------------------------|--------------------------------10S15---|
|-----------------------------------|----------------------------------------|
|-----------------------------------|-12-----8-----8-12-10-----7-------------|
|--8-----5----------8-----5---------|----------------------------------------|
|----0-0---0-0-0-3----0-0---0-0-0-3-|----8-8---8-8---------7-7---7-7---------|
|
|  E E E E E E E E  E E E E E E E E    E E E E E E E  E  E E E E E E  E  E
|-----------------------------------|----------------------------------------|
|-----------------------------------|----------------------------------------|
|-----------------------------------|----------------------------------------|
|-----------------------------------|----------------------------------------|
|-12-----8---------12-----8---------|-12-----8-----8-12-10-----7-------------|
|----0-0---0-0-0-3----0-0---0-0-0-3-|----8-8---8-8---------7-7---7-7--7S15---|

SOLO!!!!! woot

   W                         +W
|-------------------------|---------------------------|
|-15----------------------|-(15)----------------------|
|-------------------------|---------------------------|
|-------------------------|---------------------------|
|-------------------------|---------------------------|
|-------------------------|---------------------------|
|
|  S S E  Q    Q    E  E      Q     Q    S S S S Q
|-------------------------|---------------------------|
|-------------------------|---------------------------|
|-------------------------|---------------------------|
|-------------------------|---------------------------|
|--0-0-0------------0--0--|--------------0-0-0-0-0----|
|--0-0-0------------0--0--|--------------0-0-0-0-0----|


   Q.             Q.           Q           +W
|----------------20---------------------|------------------------------|
|-20b22---------(20)b22-------20b22-----|-(20)b22----------------------|
|---------------------------------------|------------------------------|
|---------------------------------------|------------------------------|
|---------------------------------------|------------------------------|
|---------------------------------------|------------------------------|
|
|  S    S E  Q           Q     E     E      Q        Q    S S S S Q
|---------------------------------------|------------------------------|
|---------------------------------------|------------------------------|
|---------------------------------------|------------------------------|
|---------------------------------------|------------------------------|
|--7----7-7--------------------7-----7--|-----------------7-7-7-7-7----|
|--7----7-7--------------------7-----7--|-----------------7-7-7-7-7----|


   E    E   E   Q      E   E   E     E   E   E   E   +H
|---------------------------------|---------------------------------|
|---------------------------------|-18--15--17--13--(13)------------|
|-14---15------14-----15----------|---------------------------------|
|----------17-------------17--15--|---------------------------------|
|---------------------------------|---------------------------------|
|---------------------------------|---------------------------------|
|
|  S S  E   Q      Q       E   E     Q       Q        S  S S S Q
|---------------------------------|---------------------------------|
|---------------------------------|---------------------------------|
|---------------------------------|---------------------------------|
|---------------------------------|---------------------------------|
|--8-8--8------------------8---8--|-------------------8--8-8-8-8----|
|--8-8--8------------------8---8--|-------------------8--8-8-8-8----|


   |--3--|   |--3---|   |--3--|   |--3--|     |--3---|   |--3--|
   E  E  E   E   E  E   E  E  E   E  E  E     E   E  E   E  E  E   Q     Q
|------------------------------------------|----------------------------------|
|------------------------------------------|----------------------15----13----|
|------------------------------------------|---------------12-14--------------|
|-----------12--10-14------------14-12-15--|--------15--14--------------------|
|-10-12-13-------------12-13-15------------|-13--15---------------------------|
|------------------------------------------|----------------------------------|
|
|  E     E  +H                    E     E    +W
|------------------------------------------|----------------------------------|
|------------------------------------------|----------------------------------|
|------------------------------------------|----------------------------------|
|------------------------------------------|----------------------------------|
|--5-----5--(5)-------------------7-----7--|-(7)------------------------------|
|--5-----5--(5)-------------------7-----7--|-(7)------------------------------|


   S  S  S  S  S  S  S  S  S  S  S  S  S  S  S  S
|-------------------------------------------------|
|-------------------------------------------------|
|-14-10-10-10-10-10-14-10-10-10-10-10-14-10-10-10-|
|-------------------------------------------------|
|-------------------------------------------------|
|-------------------------------------------------|
|
|  W
|-------------------------------------------------|
|-------------------------------------------------|
|-------------------------------------------------|
|-------------------------------------------------|
|--0----------------------------------------------|
|--0----------------------------------------------|


   S  S  S  S  S  S  S  S  S  S  S  S  S  S  S  S
|---------------------------------------------------|
|---------------------------------------------------|
|-15-12-12-12-12-12-15-12-12-12-12-12-15-12-12-12---|
|---------------------------------------------------|
|---------------------------------------------------|
|---------------------------------------------------|
|
|  W
|---------------------------------------------------|
|---------------------------------------------------|
|---------------------------------------------------|
|---------------------------------------------------|
|--8------------------------------------------------|
|--8------------------------------------------------|


                                                     |----3----|
   S  S  S  S  S  S  S  S  S  S  S  S  S  S  S  S    Q    Q    Q    H
|-------------------------------------------------|-----------------------|
|-------------------------------------------------|-----------------------|
|-17-14-14-14-14-14-17-14-14-14-14-14-17-14-14-14-|-19---17---15--[14]----|
|-------------------------------------------------|-----------------------|
|-------------------------------------------------|-----------------------|
|-------------------------------------------------|-----------------------|
|
|  W                                                 W
|-------------------------------------------------|-----------------------|
|-------------------------------------------------|-----------------------|
|-------------------------------------------------|-----------------------|
|-------------------------------------------------|-----------------------|
|--3----------------------------------------------|-10--------------------|
|--3----------------------------------------------|-10--------------------|


   S  S  H         +E    S  S  E     +H.       +E   E
|---------------------------------|----------------------|
|---------------------------------|----------------------|
|-12-14-12--------(12)------------|----------------------|
|-----------------------15-14-15--|-(15)------(15)-10----|
|---------------------------------|----------------------|
|---------------------------------|----------------------|
|
|  W                                  W
|---------------------------------|----------------------|
|---------------------------------|----------------------|
|---------------------------------|----------------------|
|---------------------------------|----------------------|
|-12------------------------------|---3------------------|
|-12------------------------------|---3------------------|


   E   Q     Q     Q     E     +E         Q        Q        Q.
|---------------------------|-----------------------------------------|
|---------------------------|-----------------------------------------|
|-----------------14----14--|-(14)-------15-------12-------14---------|
|-10--12----12--------------|-----------------------------------------|
|---------------------------|-----------------------------------------|
|---------------------------|-----------------------------------------|
|
|  W                            S  S S S  S S S S  S S S S  S  S E
|---------------------------|-----------------------------------------|
|---------------------------|-----------------------------------------|
|---------------------------|-----------------------------------------|
|---------------------------|-----------------------------------------|
|--5------------------------|-----------------------------------------|
|--5------------------------|---1--1-3-3--3-3-1-1--1-1-3-3--3--3-3----|


   E  E  E  Q   E  E  E    E   E  E  Q   E  E  E
|-----------------------|------------------------|
|-----------------------|------------------------|
|-10-12----10--12-------|-10--12----10--12-------|
|-------10--------10-10-|--------10--------10-10-|
|-----------------------|------------------------|
|-----------------------|------------------------|
|
|  W                      +W
|-----------------------|------------------------|
|-----------------------|------------------------|
|-----------------------|------------------------|
|-----------------------|------------------------|
|--0--------------------|-(0)--------------------|
|--0--------------------|-(0)--------------------|


   E  E  E  Q   E  E  E    E   E  E  Q   E  E  E
|-----------------------|------------------------|
|-----------------------|------------------------|
|-12-14----12--14-------|-12--14----12--14-------|
|-------15--------15-15-|--------15--------15-15-|
|-----------------------|------------------------|
|-----------------------|------------------------|
|
|  W                      +W
|-----------------------|------------------------|
|-----------------------|------------------------|
|-----------------------|------------------------|
|-----------------------|------------------------|
|--8--------------------|-(8)--------------------|
|--8--------------------|-(8)--------------------|


   E  E  E  Q   E  E  E    E   E  E  Q   E  E  E
|-----------------------|------------------------|
|-----------------------|------------------------|
|-10-12----10--12-------|-10--12----10--12-------|
|-------13--------13-13-|--------13--------13-13-|
|-----------------------|------------------------|
|-----------------------|------------------------|
|
|  W                      +W
|-----------------------|------------------------|
|-----------------------|------------------------|
|-----------------------|------------------------|
|-----------------------|------------------------|
|--3--------------------|-(3)--------------------|
|--3--------------------|-(3)--------------------|


                           |------3------|
   E  E  E  Q   E  E  E    Q      Q      Q      H
|-----------------------|--------------------------------|
|-----------------------|-16-----15----------------------|
|-14-15----14--15-------|---------------15-----17--------|
|-------15--------15-15-|--------------------------------|
|-----------------------|--------------------------------|
|-----------------------|--------------------------------|
|
|  W                       S S S  S S S  S S S  S S S E
|-----------------------|--------------------------------|
|-----------------------|--------------------------------|
|-----------------------|--------------------------------|
|-----------------------|--------------------------------|
|--1--------------------|--------------------------------|
|--1--------------------|--1-1-3--3-3-3--1-1-1--1-3-3-3--|


  Q=160
  Gtr I
   S  S  S  S  S  S  S  S  S  S  S  S  S  S  S  S
|-------------------------------------------------|
|-------------------------------------------------|
|-------------------------------------------------|
|-15-12-12-12-12-12-15-12-12-12-12-12-15-12-12-12-|
|-------------------------------------------------|
|-------------------------------------------------|
|
| Gtr II
|  S  S  E     Q           Q           E     E
|-------------------------------------------------|
|-------------------------------------------------|
|-------------------------------------------------|
|-------------------------------------------------|
|--0--0--0-----------------------------0-----0----|
|--0--0--0-----------------------------0-----0----|


   S  S  S  S  S  S  S  S  S  S  S  S  S  S  S  S
|---------------------------------------------------|
|---------------------------------------------------|
|---------------------------------------------------|
|-15-12-12-12-12-12-15-12-12-12-12-12-15-12-12-12---|
|---------------------------------------------------|
|---------------------------------------------------|
|
|  Q           Q           S  S  S  S  Q
|---------------------------------------------------|
|---------------------------------------------------|
|---------------------------------------------------|
|---------------------------------------------------|
|--------------------------0--0--0--0--0------------|
|--------------------------0--0--0--0--0------------|


   S  S  S  S  S  S  S  S  S  S  S  S  S  S  S  S
|-------------------------------------------------|
|-------------------------------------------------|
|-------------------------------------------------|
|-14-10-10-10-10-10-14-10-10-10-10-10-14-10-10-10-|
|-------------------------------------------------|
|-------------------------------------------------|
|
|  S  S  E     Q           Q           E     E
|-------------------------------------------------|
|-------------------------------------------------|
|-------------------------------------------------|
|-------------------------------------------------|
|--7--7--7-----------------------------7-----7----|
|--7--7--7-----------------------------7-----7----|


   S  S  S  S  S  S  S  S  S  S  S  S  S  S  S  S
|---------------------------------------------------|
|---------------------------------------------------|
|---------------------------------------------------|
|-14-10-10-10-10-10-14-10-10-10-10-10-14-10-10-10---|
|---------------------------------------------------|
|---------------------------------------------------|
|
|  Q           Q           S  S  S  S  Q
|---------------------------------------------------|
|---------------------------------------------------|
|---------------------------------------------------|
|---------------------------------------------------|
|--------------------------7--7--7--7--7------------|
|--------------------------7--7--7--7--7------------|


   S  S  S  S  S  S  S  S  S  S  S  S  S  S  S  S
|-------------------------------------------------|
|-------------------------------------------------|
|-------------------------------------------------|
|-15-12-12-12-12-12-15-12-12-12-12-12-15-12-12-12-|
|-------------------------------------------------|
|-------------------------------------------------|
|
|  S  S  E     Q           Q           E     E
|-------------------------------------------------|
|-------------------------------------------------|
|-------------------------------------------------|
|-------------------------------------------------|
|--8--8--8-----------------------------8-----8----|
|--8--8--8-----------------------------8-----8----|


   S  S  S  S  S  S  S  S  S  S  S  S  S  S  S  S
|---------------------------------------------------|
|---------------------------------------------------|
|---------------------------------------------------|
|-15-12-12-12-12-12-15-12-12-12-12-12-15-12-12-12---|
|---------------------------------------------------|
|---------------------------------------------------|
|
|  Q           Q           S  S  S  S  Q
|---------------------------------------------------|
|---------------------------------------------------|
|---------------------------------------------------|
|---------------------------------------------------|
|--------------------------8--8--8--8--8------------|
|--------------------------8--8--8--8--8------------|


                       |---3----|
   E  E  +H      E  E  Q    Q   Q   H
|----------------------------------------|
|----------------------------------------|
|----------------------------------------|
|-15-14-(14)----14-15-17---15--14--11----|
|----------------------------------------|
|----------------------------------------|
|
|  E  E  +H      E  E +W
|----------------------------------------|
|----------------------------------------|
|----------------------------------------|
|----------------------------------------|
|--5--5--(5)-----7--7-(7)----------------|
|--5--5--(5)-----7--7-(7)----------------|


   E  E  +H.       +H
|-------------------------|
|-------------------------|
|-------------------------|
|-15p12-(12)------(12)----|
|-------------------------|
|-------------------------|
|
|  W               +W
|-------------------------|
|-------------------------|
|-------------------------|
|-------------------------|
|--0---------------(0)----|
|--0---------------(0)----|


    E S S S S S S S S S S S S S S   S S S S S S E S S S S S S E
||--------------------------------|--------------------------------|
||o-------------------------------|--------------------------------|
||--------------------------------|--------------------------------|
||--------------------------------|--------------------------------|
||o-4-----------------------------|-------------1-------------3----|
||----0-0-0-0-3p0-0-0-0-0-3p1p0-0-|-1p0-0-0-0-0---0-0-0-0-0-0------|
|
|   E S S S S S S S S S S S S S S   S S S S S S E S S S S S S E
||--------------------------------|--------------------------------|
||o-------------------------------|--------------------------------|
||--------------------------------|--------------------------------|
||--------------------------------|--------------------------------|
||o-4-----------------------------|-------------1-------------3----|
||----0-0-0-0-3p0-0-0-0-0-3p1p0-0-|-1p0-0-0-0-0---0-0-0-0-0-0------|


  1.
  E S S S S S S S S S S S S S S   S S S S S S E S S S S S S E
|-------------------------------|---------------------------------||
|-------------------------------|--------------------------------o||
|-------------------------------|---------------------------------||
|-------------------------------|---------------------------------||
|-4-----------------------------|-------------1-------------3----o||
|---0-0-0-0-3p0-0-0-0-0-3p1p0-0-|-1p0-0-0-0-0---0-0-0-0-0-0-------||
|
| E S S S S S S S S S S S S S S   S S S S S S E S S S S S S E
|-------------------------------|---------------------------------||
|-------------------------------|--------------------------------o||
|-------------------------------|---------------------------------||
|-------------------------------|---------------------------------||
|-4-----------------------------|-------------1-------------3----o||
|---0-0-0-0-3p0-0-0-0-0-3p1p0-0-|-1p0-0-0-0-0---0-0-0-0-0-0-------||


  2.
  E S S S S S S S S S S S S S S   Q    E  H   E
|-------------------------------|------------------|
|-------------------------------|------------------|
|-------------------------------|------------------|
|-------------------------------|------------------|
|-4-----------------------------|-4----3--1---3----|
|---0-0-0-0-3p0-0-0-0-0-3p1p0-0-|-4----3--1--------|
|
| E S S S S S S S S S S S S S S   Q    E  H   E
|-------------------------------|------------------|
|-------------------------------|------------------|
|-------------------------------|------------------|
|-------------------------------|------------------|
|-4-----------------------------|-4----3--1---3----|
|---0-0-0-0-3p0-0-0-0-0-3p1p0-0-|-4----3--1--------|


    E S S S S S S S S S S S S S S   S S S S S S E S S S S S S E
||--------------------------------|--------------------------------|
||o-------------------------------|--------------------------------|
||--------------------------------|--------------------------------|
||--------------------------------|--------------------------------|
||o-4-----------------------------|-------------1-------------3----|
||----0-0-0-0-3p0-0-0-0-0-3p1p0-0-|-1p0-0-0-0-0---0-0-0-0-0-0------|
|
|   E S S S S S S S S S S S S S S   S S S S S S E S S S S S S E
||--------------------------------|--------------------------------|
||o-------------------------------|--------------------------------|
||--------------------------------|--------------------------------|
||--------------------------------|--------------------------------|
||o-4-----------------------------|-------------1-------------3----|
||----0-0-0-0-3p0-0-0-0-0-3p1p0-0-|-1p0-0-0-0-0---0-0-0-0-0-0------|


  1.
  E S S S S S S S S S S S S S S   S S S S S S E S S S S S S E
|-------------------------------|---------------------------------||
|-------------------------------|--------------------------------o||
|-------------------------------|---------------------------------||
|-------------------------------|---------------------------------||
|-4-----------------------------|-------------1-------------3----o||
|---0-0-0-0-3p0-0-0-0-0-3p1p0-0-|-1p0-0-0-0-0---0-0-0-0-0-0-------||
|
| E S S S S S S S S S S S S S S   S S S S S S E S S S S S S E
|-------------------------------|---------------------------------||
|-------------------------------|--------------------------------o||
|-------------------------------|---------------------------------||
|-------------------------------|---------------------------------||
|-4-----------------------------|-------------1-------------3----o||
|---0-0-0-0-3p0-0-0-0-0-3p1p0-0-|-1p0-0-0-0-0---0-0-0-0-0-0-------||


  2.
  E S S S S S S S S S S S S S S   Q    E  H   E
|-------------------------------|------------------|
|-------------------------------|------------------|
|-------------------------------|------------------|
|-------------------------------|------------------|
|-4-----------------------------|-4----3--1---3----|
|---0-0-0-0-3p0-0-0-0-0-3p1p0-0-|-4----3--1--------|
|
| E S S S S S S S S S S S S S S   Q    E  H   E
|-------------------------------|------------------|
|-------------------------------|------------------|
|-------------------------------|------------------|
|-------------------------------|------------------|
|-4-----------------------------|-4----3--1---3----|
|---0-0-0-0-3p0-0-0-0-0-3p1p0-0-|-4----3--1--------|


     E E E E E E E E  E E E E E E E E    E E E E E E E E  E E E E E E E E
||------------------------------------|------------------------------------|
||o-----------------------------------|------------------------------------|
||------------------------------------|------------------------------------|
||------------------------------------|------------------------------------|
||o--8-----5----------8-----5---------|--8-----5----------8-----5----------|
||-----0-0---0-0-0-3----0-0---0-0-0-3-|----0-0---0-0-0-3----0-0---0-0-0-3--|
|
|    E E E E E E E E  E E E E E E E E    E E E E E E E E  E E E E E E E E
||------------------------------------|------------------------------------|
||o-----------------------------------|------------------------------------|
||------------------------------------|------------------------------------|
||------------------------------------|------------------------------------|
||o-12-----8---------12-----8---------|-12-----5---------12-----8----------|
||-----0-0---0-0-0-3----0-0---0-0-0-3-|----0-0---0-0-0-3----0-0---0-0-0-3--|


   E E E E E E E E  E E E E E E E E    E E E E E E E E  E E E E E E E E
|-----------------------------------|-------------------------------------|
|-----------------------------------|-------------------------------------|
|-----------------------------------|-------------------------------------|
|-----------------------------------|-------------------------------------|
|--7-----3-----0-3--7-----3-----0-3-|--7-----3-----0-3--7-----3-----0-3---|
|----0-0---0-0--------0-0---0-0-----|----0-0---0-0--------0-0---0-0-------|
|
|  E E E E E E E E  E E E E E E E E    E E E E E E E E  E E E E E E E E
|-----------------------------------|-------------------------------------|
|-----------------------------------|-------------------------------------|
|-----------------------------------|-------------------------------------|
|-----------------------------------|-------------------------------------|
|-10-----7-----0-3-10-----7-----0-3-|-10-----7-----0-3-10-----7-----0-3---|
|----0-0---0-0--------0-0---0-0-----|----0-0---0-0--------0-0---0-0-------|


  1.
   E E E E E E E E  E E E E E E E E    E E E E E E E  E  E E E E E E  E  E
|-----------------------------------|-----------------------------------------||
|-----------------------------------|----------------------------------------o||
|-----------------------------------|-----------------------------------------||
|-----------------------------------|-12-----8-----8-12-10-----7--------------||
|--8-----5----------8-----5---------|---------------------------------7-10---o||
|----0-0---0-0-0-3----0-0---0-0-0-3-|----8-8---8-8---------7-7---7-7----------||
|
|  E E E E E E E E  E E E E E E E E    E E E E E E E  E  E E E E E E  E  E
|-----------------------------------|-----------------------------------------||
|-----------------------------------|----------------------------------------o||
|-----------------------------------|-----------------------------------------||
|-----------------------------------|-----------------------------------------||
|-12-----8---------12-----8---------|-12-----8-----8-12-10-----7-----10-13---o||
|----0-0---0-0-0-3----0-0---0-0-0-3-|----8-8---8-8---------7-7---7-7----------||


  2.
   E E E E E E E E  E E E E E E E E    E E E E E E E  E  E E E E E E  Q
|-----------------------------------|---------------------------------------|
|-----------------------------------|---------------------------------------|
|-----------------------------------|---------------------------------------|
|-----------------------------------|-12-----8-----8-12-10-----7-----[7]----|
|--8-----5----------8-----5---------|---------------------------------------|
|----0-0---0-0-0-3----0-0---0-0-0-3-|----8-8---8-8---------7-7---7-7--------|
|
|  E E E E E E E E  E E E E E E E E    E E E E E E E  E  E E E E E E  Q
|-----------------------------------|---------------------------------------|
|-----------------------------------|---------------------------------------|
|-----------------------------------|---------------------------------------|
|-----------------------------------|---------------------------------------|
|-12-----8---------12-----8---------|-12-----8-----8-12-10-----7-----[8]----|
|----0-0---0-0-0-3----0-0---0-0-0-3-|----8-8---8-8---------7-7---7-7--------|


  E E Q
|----------|
|----------|
|----------|
|----------|
|-0-0-0----|
|-0-0-0----|
|
| E E Q
|----------|
|----------|
|----------|
|----------|
|-0-0-0----|
|-0-0-0----|


and that's it

--------------------------------------------------------------------------------


Duration Legend
---------------
W - whole; H - half; Q - quarter; E - 8th; S - 16th; T - 32nd; X - 64th; a - acciaccatura
+ - note tied to previous; . - note dotted; .. - note double dotted
Uncapitalized letters represent notes that are staccato (1/2 duration)
Irregular groupings are notated above the duration line
Duration letters will always appear directly above the note/fret number it represents the
duration for.  Duration letters with no fret number below them represent rests.  Multi-
bar rests are notated in the form Wxn, where n is the number of bars to rest for.  Low
melody durations appear below the staff

Tablature Legend
----------------
 h   - hammer-on
 p   - pull-off
 b   - bend
 pb  - pre-bend
 r   - bend release (if no number after the r, then release immediately)
 /\  - slide into or out of (from/to "nowhere")
 s   - legato slide
 S   - shift slide
 - natural harmonic
[n]  - artificial harmonic
n(n) - tapped harmonic
 ~   - vibrato
 tr  - trill
 T   - tap
 TP  - trem. picking
 PM  - palm muting
\n/  - tremolo bar dip; n = amount to dip
 \n  - tremolo bar down
 n/  - tremolo bar up
/n\  - tremolo bar inverted dip
 =   - hold bend; also acts as connecting device for hammers/pulls
 <> - volume swell (louder/softer)
 x   - on rhythm slash represents muted slash
 o   - on rhythm slash represents single note slash

Misc Legend
-----------
 |  - bar
||  - double bar
||o - repeat start
o|| - repeat end
*|  - double bar (ending)
 :  - bar (freetime)
 $  - Segno
 &  - Coda
Tempo markers -  = BPM(8/16=s8/s16), where s8 = swing 8ths, s16 = swing 16ths

Tap to rate this tab
 
# A B C D E F G H I J K L M N O P Q R S T U V W X Y Z