Guitaretab - guitar tabs
Song name
# A B C D E F G H I J K L M N O P Q R S T U V W X Y Z

Himsa - Wolfchild tab

Wolfchild (intro)
[ Tab from: http://www.guitaretab.com/h/himsa/90144.html ]
--------------------------------------------------------------------------------|
--------------------------------------------------------------------------------|
--------------------------------------------------------------------------------|
-7----------5-7-----9-------10-------9--3------------5--5--------------10-9-7-9-|
-7---------------8----8-8-8----8-8-8----3----------3-3--5-----------------------|
-7--7-7-7-7-----------------------------3--3-3-3-3-3----5--5-5-5-5-5-5----------|

Dunno if itís octaves or not:
---------------------------------------------------|
---------------------------------------------------|
---------------------------------------------------|
-7--7-9-10-9---9-10-12-10---10-12--14---12--10-9---|
---------------------------------------------------|
---------------------------------------------------|

yeahh.. i'll update later if i get stuff

ewlord-1492@hotmail.com
Related for Wolfchild tab