Song name
# A B C D E F G H I J K L M N O P Q R S T U V W X Y Z

Himsa - They Speak In Swarms tab

They Speak in Swarms (intro)
---------------------------------------------------|
---------------------------------------------------|
---------------------------------------------------|
---------------------------------------------------|
-0-0-0-0--0-0-0-0--0-0-0--0-0-0-0--0-0-0-0--0-0-0--|
-0-0-0-0--0-0-0-0--0-0-0--0-0-0-0--0-0-0-0--0-0-0--|

(3x)
---------------------------------------|
---------------------------------------|
---------------------------------------|
-12-0-0-12-0-0-12-0-0-12-0-0-10-0-13-0-|
---------------------------------------|
---------------------------------------|

--------------------------|
--------------------------|
--------------------------|
--------------------------|
-1-1-1-1--1-1-1-1--1-1-1--|
-1-1-1-1--1-1-1-1--1-1-1--|

(this again 3x)
---------------------------------------|
---------------------------------------|
---------------------------------------|
-12-0-0-12-0-0-12-0-0-12-0-0-10-0-13-0-|
---------------------------------------|
---------------------------------------|

With this part (palm muted 3x)
---------------------------------|
---------------------------------|
---------------------------------|
-7-0-0-7-0-0-7-0-0-7-0-0-5-0-8-0-|
---------------------------------|
---------------------------------|

Then pick this note alot
-------------------------------|
-(guitar 2)--4-----------------|
-------------------------------|
-(guitar 1)--1-----------------|
-------------------------------|
-------------------------------|

------------------------------------------|
------------------------------------------|
------------------------------------------|
-0~---------------------------------------|
-0~----------------------x\\\\\\\\\\\\\\\-|
-0~----------------------x\\\\\\\\\\\\\\\-|


yet another intro
updates later.. maybe

ewlord-1492@hotmail.com
Tap to rate this tab
# A B C D E F G H I J K L M N O P Q R S T U V W X Y Z