Guitaretab - guitar tabs
Song name
# A B C D E F G H I J K L M N O P Q R S T U V W X Y Z

Himsa - Big Timber tab

-------------------------------------------------------------------------------
                             Big Timber - Himsa
-------------------------------------------------------------------------------
Tabbed by:Leo D.
Email: Obliterate74@hotmail.com
	 www.myspace.com/obliterate1000

I didn't tab out any of the leads.  Its all in D minor, though and the leads are very 
melodies.

As far as palm muting, I didn't notate any because anyone with half a brain can listen 
figure out where the mutes go.  Same goes for the tremolo picked parts, I just guessed as 
how many there are, the actual amount may be different.  Everything else should be perfect.

Order is as it is on the CD.

Questions or comments, e-mail me...

Tuning:CGCFAd

Main Riff

Guitar 1
d|---------------------------------------------------------------------------|
A|---------------------------------------------------------------------------|
F|-------------------------------------10-9~~~12-10-9-10---------------------|
C|-----------------------------------8-------------------12------------------|
G|-13-13-13---------13-13-12-------------------------------------------------|
C|-0--0--0---0000---0--0--0---0000-------------------------------------------|

Guitar 2
d|---------------------------------------------------------------------------|
A|---------------------------------------------------------------------------|
F|---------------------------------------------------------------------------|
C|--------------------------------------14-12~~~15-14-12-14------------------|
G|-13-13-13---------13-13-12---------12---------------------15---------------|
C|-0--0--0---0000---0--0--0---0000-------------------------------------------|

Riff 2

Guitars 1 & 2
d|---------------------------------------------------------------------------|
A|---------------------------------------------------------------------------|
F|---------------------------------------------------------------------------|
C|---------------------------------------------------------------------------|
G|-5-5-5-5-5-5-5-5-5-5-5-5-5-5-5-5-5-5555-5-5555-5-5555--8--7----------------|
C|-5-5-5-5-5-5-5-5-5-5-5-5-5-5-5-5-5-5555-5-5555-5-5555-8--7----------------|


Riff 3/Verse

Guitars 1 & 2
d|---------------------------------------------------------------------------|
A|---------------------------------------------------------------------------|
F|---------------------------------------------------------------------------|
C|----------------------------------------------10-12---13--12--10-----------|
G|-12---------12-8-11--------11-10-8------------8--10---11--10--8------------|
C|----0000000---------000000---------0000000000------------------------------|


Riff 4

Guitars 1 & 2
d|---------------------------------------------------------------------------|
A|---------------------------------------------------------------------------|
F|---------------------------------------------------------------------------|
C|----------------------------------------------10-12---13--12--10-----------|
G|-12---------12-8-11--------11-10-8------------8--10---11--10--8------------|
C|-----0-000----------0-000-----------0-000-000------------------------------|

Riff 5
[ Tab from: http://www.guitaretab.com/h/himsa/97810.html ]
Guitars 1 & 2
d|---------------------------------------------------------------------------|
A|---------------------------------------------------------------------------|
F|---------------------------------------------------------------------------|
C|---------------------------------------------------------------------------|
G|------------------------------------------------------3-5--6-5-3-----------|
C|-7-777777777777-8-8-7-777777777777-8-5-7-777777777777-3-5--6-5-3-----------|

Riff 6

Guitars 1 & 2
d|---------------------------------------------------------------------------|
A|---------------------------------------------------------------------------|
F|---------------------------------------------------------------------------|
C|---------------------------------------------------------------------------|
G|-12---------------------------11---------------------------8---------------|
C|----0-000-000-000-000-000-000----0-000-000-000-000-000-000---0-000-000-000-|


d|---------------------------------------------------------------------------|
A|---------------------------------------------------------------------------|
F|---------------------------------------------------------------------------|
C|---------------------------------------------------------------------------|
G|------------12--------13--------12--------13-------------------------------|
C|000-000-000-0000000-0--000000-0--000000-0--000000-------------------------|


Riff

Guitars 1 & 2
(Go back second time palm muting where necessary)
d|---------------------------------------------------------------------------|
A|---------------------------------------------------------------------------|
F|---------------------------------------------------------------------------|
C|---------------------------------------------------------------------------|
G|-5~~~~~~~~~~1~~~~~~~~~8----3----5~~~~~~~~~~1~~~~~~~~~~8-------10-----------|
C|-5~~~~~~~~~~1~~~~~~~~~8----3----5~~~~~~~~~~1~~~~~~~~~~8-------10-----------|


Interlude before ass kicking part

Guitar 1
d|---------------------------------------------------------------------------|
A|---------------------------------------------------------------------------|
F|---------------------------------------------------------------------------|
C|----------------------------------------------3----------------------------|
G|-0~~~~~~~~~~~~~~~~~~~~~~~~~~~~~~~~~~~~~~~~~~~~3--3-3-3-3-3-3-3-------------|
C|-0~~~~~~~~~~~~~~~~~~~~~~~~~~~~~~~~~~~~~~~~~~~~3-3-3-3-3-3-3-3-------------|

Guitar 2
d|---------------------------------------------------------------------------|
A|---------------------------------------------------------------------------|
F|---------------------------------------------------------------------------|
C|----------------------------------------------3----------------------------|
G|-12---------12-8-11--------11-10-8------------3--3-3-3-3-3-3-3-------------|
C|----0000000---------000000---------0000000000-3--3-3-3-3-3-3-3-------------|


Ass kicking riff

Guitars 1 & 2
d|---------------------------------------------------------------------------|
A|---------------------------------------------------------------------------|
F|---------------------------------------------------------------------------|
C|-0--0-------0-0--0-------0-0--0------0-------------------------------------|
G|-0--0--0-0--0-0--0--0-0--0-0--0--0-0-0-0--3-5--6--5-3-5--------------------|
C|-0--0--0-0--0-0--0--0-0--0-0--0--0-0-0-0--3-5--6--5-3-5--------------------|

Tabbed by Leo D.----obliterate74@hotmail.com---www.myspace.com/obliterate1000

===============================================================================
Related for Big Timber tab