Song name
# A B C D E F G H I J K L M N O P Q R S T U V W X Y Z

Himsa - Its Nights Like These That Keep Us Alive tab

Help us improve GuitareTab! Take a short survey!
Tuning: Drop D (D-A-D-G-H-E)

|------------------------------------------------------------------|
|------------------------------------------------------------------|
|--------------------------------------------------6h7-------------|
|----------------------------------------------7h8-----------------| X4
|--------4h5------4h5-7h8--------4h5---4h5-7h8---------------------|
|-0-0000-----0-00---------0-0000-----0-----------------------------|

Strum these chords alot..
|------------------------------------------------------------------| 
|------------------------------------------------------------------|   
|-10----------------------------12---------------------------------|   |
|-8-----------------------------10---------------------------------|   |
|-8-----------------------------10---------------------------------|   |
|-8-----------------------------10---------------------------------|     X2
                                                                       /
|------------------------------------------------------------------|   |
|------------------------------------------------------------------|   |
|------------------------------------------------------------------|   |
|------------------------------------------------------------------|   |
|--------6---3h5--------6---3h5--------6---3h5--------6---3h5------|  /
|-0-0000---0-----0-0000---0-----0-0000---0-----0-0000---0----------| /


|------------------------------------------------------------------|
|------------------------------------------------------------------|
|-10----------------------------12---------------------------------|
|-8-----------------------------10---------------------------------|
|-8-----------------------------10---------------------------------|
|-8-----------------------------10---------------------------------|

|------------------------------------------------------------------|
|------------------------------------------------------------------|
|------------------------------------------------------------------|
|----------------------------1--4----------------------------------| X4
|----------------------------1--4----------------------------------|
|-12-8-0-11-7-0-10-6-0-9-5-0-1--4----------------------------------|

|------------------------------------------------------------------|
|------------------------------------------------------------------|
|------------------------------------------------------------------|
|-0---------1----4-------------------------------------------------| X3
|-0---------1----4-------------------------------------------------|
|-0---------1----4-------------------------------------------------|
 
|------------------------------------------------------------------|
|------------------------------------------------------------------|
|------------------------------------------------------------------|
|-0---------0-0-0-0------------------------------------------------|
|-0---------0-0-0-0------------------------------------------------|
|-0---------0-0-0-0------------------------------------------------|

|------------------------------------------------------------------|
|------------------------------------------------------------------|
|--------------------------------------------------6h7-------------|
|----------------------------------------------7h8-----------------| X2
|--------4h5------4h5-7h8--------4h5---4h5-7h8---------------------|
|-0-0000-----0-00---------0-0000-----0-----------------------------|

|------------------------------------------------------------------| 
|------------------------------------------------------------------|  
|-10----------------------------12---------------------------------|   |
|-8-----------------------------10---------------------------------|   |
|-8-----------------------------10---------------------------------|   |
|-8-----------------------------10---------------------------------|    X2
                                                                       /
|------------------------------------------------------------------|   |
|------------------------------------------------------------------|   |
|------------------------------------------------------------------|   |
|-0-0--0-1-4----0-0---0-1-4----0-0---0-1-4----0-0---0-1-4----------|   |
|-0-0--0-1-4----0-0---0-1-4----0-0---0-1-4----0-0---0-1-4----------|  /
|-0-0--0-1-4----0-0---0-1-4----0-0---0-1-4----0-0---0-1-4---------- |/

|------------------------------------------------------------------|
|------------------------------------------------------------------|
|-10----------------------------12---------------------------------|
|-8-----------------------------10---------------------------------|
|-8-----------------------------10---------------------------------|
|-8-----------------------------10---------------------------------|

|------------------------------------------------------------------|
|------------------------------------------------------------------|
|------------------------------------------------------------------|
|-0----------------------------------------------------------------|
|-0-(Let ring)---------------------------0-0-0---0-0-0-------------|
|-0--------------------------------------0-0-0---0-0-0-------------|
                                        \ _Palm Mute_/

|------------------------------------------------------------------|
|------------------------------------------------------------------|
|------------------------------------------------------------------|
|--------------------10-----8----------------------10-----8-7------| X4
|--------6---3h5-----------------------6---3h5---------------------|
|-0-0000---0-----8-8----7-7-----0-0000---0-----8-8----7-7----------|


|------------------------------------------------------------------|
|------------------------------------------------------------------|
|-10----------------------------12---------------------------------|
|-8-----------------------------10---------------------------------| X3
|-8-----------------------------10---------------------------------|
|-8-----------------------------10---------------------------------|

The ending part
|------------------------------------------------------------------|
|------------------------------------------------------------------|
|------------------------------------------------------------------|
|----------------------------------7-------------------------------|
|----12h13----10h12----8h10----7h8---10-8-7-8-7-5-7-5--------------|
|-00-------00-------00------00-------------------------------------|
Related for Its Nights Like These That Keep Us Alive tab