Song name
# A B C D E F G H I J K L M N O P Q R S T U V W X Y Z

Hinder - Use Me Part 2 tab

Help us improve GuitareTab! Take a short survey!
This Is A Cont. From My First Hinder Tab
Tabbed By Ryan Ryngaert

Verse (Play Twice)                                     x2               x1
E--------------------------------------------------------|----------------|
B--------------------------------------------------------|----------------|
G--------------------------------------------------------|----------------|
D-----------------------------3/5-5-5-5-5-5-5-5-5-5-5-5-5|-8-8-8-8-8-8-8-8|
A-3/5-5-5-5-5-5-5-5-5-5-5-5-5-1/3-3-3-3-3-3-3-3-3-3-3-3-3|-6-6-6-6-6-6-6-6|
E-1/3-3-3-3-3-3-3-3-3-3-3-3-3----------------------------|----------------|
     |p.m....................|   |p.m....................|

Chorus (Play Once)              x3                                 x1
E---------------------------------|----------------------------------|
B---------------------------------|----------------------------------|
G---------------------------------|----------------------------------|
D-------------------------5-5-5-5-|-8-8-8-8-8-8-8-8-5-5-5-5-5-5-5-5-5|
A-5-5-5-5-5-5-5-5-3-3-3-3-3-3-3-3-|-6-6-6-6-6-6-6-6-3-3-3-3-3-3-3-3-3|
E-3-3-3-3-3-3-3-3-1-1-1-1---------|----------------------------------|

There's A Fill In Here But I Am Still Figuring It Out

Verse (Play Twice)                                     x2               x1
E--------------------------------------------------------|----------------|
B--------------------------------------------------------|----------------|
G--------------------------------------------------------|----------------|
D-----------------------------3/5-5-5-5-5-5-5-5-5-5-5-5-5|-8-8-8-8-8-8-8-8|
A-3/5-5-5-5-5-5-5-5-5-5-5-5-5-1/3-3-3-3-3-3-3-3-3-3-3-3-3|-6-6-6-6-6-6-6-6|
E-1/3-3-3-3-3-3-3-3-3-3-3-3-3----------------------------|----------------|
     |p.m....................|   |p.m....................|

Chorus (Play Twice)             x3                                 x1
E---------------------------------|----------------------------------|
B---------------------------------|----------------------------------|
G---------------------------------|----------------------------------|
D-------------------------5-5-5-5-|-8-8-8-8-8-8-8-8-5-5-5-5-5-5-5-5-5|
A-5-5-5-5-5-5-5-5-3-3-3-3-3-3-3-3-|-6-6-6-6-6-6-6-6-3-3-3-3-3-3-3-3-3|
E-3-3-3-3-3-3-3-3-1-1-1-1---------|----------------------------------|

Solo
There's A Solo In Here But I Am Still Figuring It Out

Chorus (Play Twice)            x2                                  x1
E---------------------------------|----------------------------------|
B---------------------------------|----------------------------------|
G---------------------------------|----------------------------------|
D-------------------------5-5-5-5-|-8-8-8-8-8-8-8-8-5-5-5-5-5-5-5-5-5|
A-5-5-5-5-5-5-5-5-3-3-3-3-3-3-3-3-|-6-6-6-6-6-6-6-6-3-3-3-3-3-3-3-3-3|
E-3-3-3-3-3-3-3-3-1-1-1-1---------|----------------------------------|

Continue Playing Chorus Until End Hold Out Last Chord Forever.

I'll Have The Rest Of The Fill's And Solo's On Another Tab As Soon As
I Figure It Out.
Enjoy What I Have So Far
Related for Use Me Part 2 tab