Guitaretab - guitar tabs
Song name
# A B C D E F G H I J K L M N O P Q R S T U V W X Y Z
Home / H / Hinder / Paste tab

Hinder - Paste tab

-------------------------------------------------------------------------------
			     Paste - Hinder
-------------------------------------------------------------------------------
Tabbed by:Phillip
Email:Cheetaclawsfl@yahoo.com

Tuning:Standard

This is a song off of the Far From Close Cd in 2003.  They made 5,000 copies of it, so
probably don't have it. If you do, here you go

Update:  My other tab for this was so far off.  I was extremely out of tune when I 
it, so I fixed that problem.
[ Tab from: http://www.guitaretab.com/h/hinder/159940.html ]
e|---------------------------------------------------------------------------|
B|-4-4-4-4---------4-4-4-4---------------------------------------------------|
G|-4-4-4-4---------4-4-4-4--1-1-1-1------------------------------------------|
D|-6-6-6-6-2-2-2-2-4-4-4-4--2-2-2-2------------------------------------------|
A|-6-6-6-6-2-2-2-2-2-2-2-2--2-2-2-2------------------------------------------|
E|-4-4-4-4-0-0-0-0----------0-0-0-0------------------------------------------|

That is the intro with light distortion.  It is also the rhythm guitar in the verse.
I don't know the lead guitar part.

Chorus
e|---------------------------------------------------------------------------|
B|---------------------------------------------------------------------------|
G|---------------------------------------------------------------------------|
D|-2-2-2-2-2-2-2-6-6-6-6-6-6-4-4-4-4-4-4-4-6-6-6-6-6-6-6---------------------|
A|-2-2-2-2-2-2-2-6-6-6-6-6-6-4-4-4-4-4-4-4-6-6-6-6-6-6-6---------------------|
E|-0-0-0-0-0-0-0-4-4-4-4-4-4-2-2-2-2-2-2-2-4-4-4-4-4-4-4---------------------|


That's it, The chorus is behind the solo. Have fun!:)

| /  slide up
| \  slide down
| h  hammer-on
| p  pull-off
| ~  vibrato
| +  harmonic
| x  Mute note
===============================================================================
Related for Paste tab
Advertisement will be closed in 10 seconds