Song name
# A B C D E F G H I J K L M N O P Q R S T U V W X Y Z

Hinder - Without You tab

-------------------------------------------------------------------------------
			     Without you ~ Hinder
-------------------------------------------------------------------------------
Tabbed by: Ryan LaRue
Email: ryanlarue3@hotmail.com

Tuning: Dropped D

 Acoustic w/ steel strings
 Electric w/ moderate distortion (NOT death metal)

Okey, you guys are gonna have to be patient with me, I do not have most of the rhythem 
or the solo neer the end of the song
If anyone has any questions/suggestions, please email me

(Intro)
e|----------------------------------------------------------------|
B|----------------------------------------------------------------|
G|-------8----8--------8--------------8-----8--------8------------|
D|-6---6--6------6---6---6----6/8---8---8------8---8---8----------| Repeat 2x
A|-6-6------6----6-6-------6--6/8-8-------8----8-8-------8--------|
D|-6-------------6------------6/8--------------8------------------|
(without Vocals)

(Verse 1)
e|----------------------------------------------------------------|
B|----------------------------------------------------------------|
G|-------8----8--------8--------------8-----8--------8------------|
D|-6---6--6------6---6---6----6/8---8---8------8---8---8----------| Repeat 2x
A|-6-6------6----6-6-------6--6/8-8-------8----8-8-------8--------|
D|-6-------------6------------6/8--------------8------------------|
“I just wanna be alone tonight, I just wanna take a little breather”
“Cause lately all we do is fight, and every time it cuts me deeper”

(Pre Chorus)
e|-------------------------------------------------------------------------|
B|-2-----------------------------------2-----------------------------------|
G|-1-----------------------------------2-------------------------4---------|
D|-3-----------------------------------2-------------------------4---------|
A|-4-------------------------------------------------------------2---------|
D|---------------------------------------------------------------2---------|
“Cause somethin’s changed, You’ve been acting so strange and its taking its toll on me”

e|-----------------------------------------------|
B|-2----------------------2----------------------|
G|-1----------------------2-----------------4----|
D|-3----------------------2-----------------4----|
A|-4----------------------------------------2----|
D|------------------------------------------2----|
“Its safe to say that I’m ready to let you leave”

e|---------------------------------------------------------------------------|
B|---------------------------------------------------------------------------|
G|-----------------------------------------------444444444444444444444-------|
D|-----------------------------------------------444444444444444444444-------|
A|-----------------------------------------------222222222222222222222-------|
D|-----------------------------------------------222222222222222222222-------|
“Its safe to say that I’m ready to let you leave”................ (start letting up)

Chorus
e|------------------------------------------------------------9~------7~--|
B|---------------------------------------2--------------------------------|
G|-------1--------4----------------------2--------------------------------|
D|-------2--------4----------------------2--------------------------------|
A|-------2--------2----------------------0--------------------------------|
D|----------------2-------------------------------------------------------|
“Without you, I live it up a little more everyday”


e|---------------------------------------------------9~------7~-----------|
B|---------------------------------2--------------------------------------|
G|-------1---------4---------------2--------------------------------------|
D|-------2---------4---------------2--------------------------------------|
A|-------2---------2---------------0--------------------------------------|
D|-----------------2------------------------------------------------------|
“Without you, I’m seein myself so differently”

e|---------------------------------------------------------------------------|
B|---------------------------------------1--------------------2--------------|
G|--------1-----------------4------------1--------------------2--------------|
D|--------2-----------------4------------1--------------------2--------------|
A|--------2-----------------2------------0--------------------0--------------|
D|--------------------------2------------------------------------------------|
“I didn’t wanna believe it then, But it all worked out in the end”


e|---------------------------------------------------------------|
B|---------------------------------------------------------------|
G|-------444444444444444444444444/--66666666666666666666666666---|
D|-------444444444444444444444444/--66666666666666666666666666---|
A|-------222222222222222222222222/--44444444444444444444444444---|
D|-------222222222222222222222222/--44444444444444444444444444---|
         ........................   ..........................
“When I watched you walk away, Well I never thought I’d say”


e|--------------------------------------------------------------------------------------|
B|---2--------------------------2-------------------------------------------------------|
G|---2--------------------------2-------------------------------------------------------|
D|---2--------------------------2------------------------------4b----(4)-(4)-(4)--1-1-1-|
A|---0--------------------------0-----2b-----(2)-(2)-(2)-2-2----------------------------|
D|--------------------------------------------------------------------------------------|
“I’m fine,              Without you”
                                      |----hold bend----|      |------hold-----|


e|--------------------------|
B|--------------------------|
G|--------------------------|
D|1h2p1---------------------|
A|-------2----4b~~~~~~~2----|
D|--------------------------|

Verse 2
e|----------------------------------------------------------------------------------|
B|-2--------------------------------------------------------------------------------|
G|-2----------------------------------------4---------------------------------------|
D|-2----------------------------------------4---------------------------------------|
A|-0----------------------------------------2---------------------------------------|
D|------------------------------------------2---------------------------------------|
“Called you up cause it’s been long enough, and you said that you were so much better



e|-------------------------------------------------------------------|
B|-2-----------------------------------------------------------------|
G|-2-------------------------------4---------------------------------|
D|-2-------------------------------4---------------------------------|
A|-0-------------------------------2---------------------------------|
D|---------------------------------2---------------------------------|
“We have done a lot of growing up, We were never ment to be together


(Pre Chorus)
e|------------------------------------------------------------------------------------|
B|-2-----------------------------------2----------------------------------------------|
G|-1-----------------------------------2-------------------------4--------------------|
D|-3-----------------------------------2-------------------------4--------------------|
A|-4-------------------------------------------------------------2--------------------|
D|---------------------------------------------------------------2--------------------|
“Cause somethin’s changed, You’ve been acting so strange and its taking its toll on me”

e|---------------------------------------------------------------------------|
B|-2----------------------2--------------------------------------------------|
G|-1----------------------2-----------------4--------------------------------|
D|-3----------------------2-----------------4--------------------------------|
A|-4----------------------0-----------------2--------------------------------|
D|------------------------------------------2--------------------------------|
“Its safe to say that I’m ready to let you leave”

e|---------------------------------------------------------------------------|
B|---------------------------------------------------------------------------|
G|-----------------------------------------------444444444444444444444-------|
D|-----------------------------------------------444444444444444444444-------|
A|-----------------------------------------------222222222222222222222-------|
D|-----------------------------------------------222222222222222222222-------|
“Its safe to say that I’m ready to let you leave”................ (start letting up)

Chorus
e|------------------------------------------------------------9~------7~--|
B|---------------------------------------2--------------------------------|
G|-------1--------4----------------------2--------------------------------|
D|-------2--------4----------------------2--------------------------------|
A|-------2--------2----------------------0--------------------------------|
D|----------------2-------------------------------------------------------|
“Without you, I live it up a little more everyday”


e|---------------------------------------------------9~------7~-----------|
B|---------------------------------2--------------------------------------|
G|-------1---------4---------------2--------------------------------------|
D|-------2---------4---------------2--------------------------------------|
A|-------2---------2---------------0--------------------------------------|
D|-----------------2------------------------------------------------------|
“Without you, I’m seein myself so differently”

e|---------------------------------------------------------------------------|
B|---------------------------------------1--------------------2--------------|
G|--------1-----------------4------------1--------------------2--------------|
D|--------2-----------------4------------1--------------------2--------------|
A|--------2-----------------2------------0--------------------0--------------|
D|--------------------------2------------------------------------------------|
“I didn’t wanna believe it then, But it all worked out in the end”


e|---------------------------------------------------------------------------|
B|---------------------------------------------------------------------------|
G|-------444444444444444444444444/--66666666666666666666666666---------------|
D|-------444444444444444444444444/--66666666666666666666666666---------------|
A|-------222222222222222222222222/--44444444444444444444444444---------------|
D|-------222222222222222222222222/--44444444444444444444444444---------------|
         ........................   ..........................
“When I watched you walk away, Well I never thought I’d say”


e|---------------------------------------------------------------------------------------|
B|---2--------------------------2--------------------------------------------------------|
G|---2--------------------------2--------------------------------------------------------|
D|---2--------------------------2------------------------------4b----(4)-(4)-(4)--1-1-1--|
A|---0--------------------------0-----2b-----(2-(2)-(2)-2-2------------------------------|
D|---------------------------------------------------------------------------------------|
“I’m fine,              Without you”
                                      |----hold bend----|      |------hold-----|


e|--------------------------|
B|--------------------------|
G|--------------------------|
D|1h2p1---------------------|
A|-------2----4b~~~~~~~2----|
D|--------------------------|


This is where the solo would be solo

(Pre Chorus)
e|------------------------------------------------------------------------------------|
B|-2-----------------------------------2----------------------------------------------|
G|-1-----------------------------------2-------------------------4--------------------|
D|-3-----------------------------------2-------------------------4--------------------|
A|-4-----------------------------------0-------------------------2--------------------|
D|---------------------------------------------------------------2--------------------|
“Cause somethin’s changed, You’ve been acting so strange and its taking its toll on me”

e|---------------------------------------------------------------------------|
B|-2----------------------2--------------------------------------------------|
G|-1----------------------2-----------------4--------------------------------|
D|-3----------------------2-----------------4--------------------------------|
A|-4----------------------0-----------------2--------------------------------|
D|------------------------------------------2--------------------------------|
“Its safe to say that I’m ready to let you leave”

e|---------------------------------------------------------------------------|
B|---------------------------------------------------------------------------|
G|-----------------------------------------------444444444444444444444-------|
D|-----------------------------------------------444444444444444444444-------|
A|-----------------------------------------------222222222222222222222-------|
D|-----------------------------------------------222222222222222222222-------|
“Its safe to say that I’m ready to let you leave”................ (start letting up)

Chorus
e|------------------------------------------------------------9~------7~--|
B|---------------------------------------2--------------------------------|
G|-------1--------4----------------------2--------------------------------|
D|-------2--------4----------------------2--------------------------------|
A|-------2--------2----------------------0--------------------------------|
D|----------------2-------------------------------------------------------|
“Without you, I live it up a little more everyday”


e|---------------------------------------------------9~------7~-----------|
B|---------------------------------2--------------------------------------|
G|-------1---------4---------------2--------------------------------------|
D|-------2---------4---------------2--------------------------------------|
A|-------2---------2---------------0--------------------------------------|
D|-----------------2------------------------------------------------------|
“Without you, I’m seein myself so differently”

e|---------------------------------------------------------------------------|
B|---------------------------------------1--------------------2--------------|
G|--------1-----------------4------------1--------------------2--------------|
D|--------2-----------------4------------1--------------------2--------------|
A|--------2-----------------2------------0--------------------0--------------|
D|--------------------------2------------------------------------------------|
“I didn’t wanna believe it then, But it all worked out in the end”


e|---------------------------------------------------------------------------|
B|---------------------------------------------------------------------------|
G|-------444444444444444444444444/--66666666666666666666666666---------------|
D|-------444444444444444444444444/--66666666666666666666666666---------------|
A|-------222222222222222222222222/--44444444444444444444444444---------------|
D|-------222222222222222222222222/--44444444444444444444444444---------------|
         ........................   ..........................
“When I watched you walk away, Well I never thought I’d say”


e|--------------------------------------------------------------------------------------|
B|---2--------------------------2-------------------------------------------------------|
G|---2--------------------------2-------------------------------------------------------|
D|---2--------------------------2------------------------------4b----(4)-(4)-(4)--1-1-1-|
A|---0--------------------------0-----2b-----(2)-(2)-(2)-2-2----------------------------|
D|--------------------------------------------------------------------------------------|
“I’m fine,              Without you”
                                      |----hold bend----|      |------hold-----|


e|--------------------------|
B|--------------------------|
G|--------------------------|
D|1h2p1---------------------|
A|-------2----4b~~~~~~~2----|
D|--------------------------|

e|-----------------------|
B|-------2---------------|
G|-------2-----1----4----|
D|-------2-----2----4----|
A|-------0-----2----2----|
D|------------------2----|
“Without you


e|-----------------------|
B|-------2---------------|
G|-------2-----1----4----|
D|-------2-----2----4----|
A|-------0-----2----2----|
D|------------------2----|
“Without you

e|-----------------------|
B|-------2---------------|
G|-------2-----1----4----|
D|-------2-----2----4----|
A|-------0-----2----2----|
D|------------------2----|
“Without you

e|-----------------------|
B|-------2---------------|
G|-------2-----1----4----|
D|-------2-----2----4----|
A|-------0-----2----2----|
D|------------------2----|
“Without you

e|-----------------------|
B|-------2---------------|
G|-------2-----1----4----|
D|-------2-----2----4----|
A|-------0-----2----2----|
D|------------------2----|
“Without you

e|---------------------------------------------------------------------------|
B|---------------------------------------------------------------------------|
G|-------8----8--------8--------------8-----8--------8-----------8-----8-----|
D|-6---6--6------6---6---6----6/8---8---8------8---8---8-------8-------8-----|
A|-6-6------6----6-6-------6--6/8-8-------8----8-8-------8---8---------8-----|
D|-6-------------6------------6/8--------------8-----------------------8-----|
“I just wanna be alone tonight, I just wanna take a little breather”


The end of the song

| /  slide up
| \  slide down
| h  hammer-on
| p  pull-off
| ~  vibrato
| +  harmonic
| x  Mute note
| .  Palm Mute
| b  Bend note
===============================================================================
Tap to rate this tab
# A B C D E F G H I J K L M N O P Q R S T U V W X Y Z