Song name
# A B C D E F G H I J K L M N O P Q R S T U V W X Y Z

Hinder - Without You tab

Help us improve GuitareTab! Take a short survey!
----------------------------------------------------------------------------
			     Without You - Hinder
                                      (Solo)
----------------------------------------------------------------------------
Tabbed by: ryantherocker
Email: canonrockryan@aim.com

I couldn't find the solo to this tab ANYWHERE so I decided to tab it and it sounds 
good to me. Rate it well please!!!

Tuning: standard EADGBe

e|-------------------------------------------------------------------------|
B|-------------------------------------------------------------11/13-13-13\|
G|-----------------10/12-12-12-12-12\10-10\7~---7^-7-7^--------------------|
D|-/10~-10-10\8-8~--------------------------------------8/10-8-------------|
A|-------------------------------------------------------------------------|
E|-------------------------------------------------------------------------|

e|----------------------------------------------18--20~--------------------|
B|11-11/20-20-20-20-20\18-18\15~--16-15--18-15-----------------------------|
G|-------------------------------------15-----15--15-----------------------|
D|-------------------------------------------------------------------------|
A|-------------------------------------------------------------------------|
E|-------------------------------------------------------------------------|

| /  slide up
| \  slide down
| h  hammer-on
| p  pull-off
| ~  vibrato
| +  harmonic
| x  Mute note
| ^  bend
============================================================================
Related for Without You tab